  0
SECTION
  2
HEADER
  9
$ACADVER
  1
AC1015
  9
$ACADMAINTVER
 70
     6
  9
$DWGCODEPAGE
  3
ANSI_1252
  9
$INSBASE
 10
0.0
 20
0.0
 30
0.0
  9
$EXTMIN
 10
-24.31109319936905
 20
-21.80073198762136
 30
-0.0000000100021362
  9
$EXTMAX
 10
15.1716944508884
 20
29.16035188044921
 30
0.0000000100021363
  9
$LIMMIN
 10
0.0
 20
0.0
  9
$LIMMAX
 10
11.0
 20
8.5
  9
$ORTHOMODE
 70
     0
  9
$REGENMODE
 70
     1
  9
$FILLMODE
 70
     1
  9
$QTEXTMODE
 70
     0
  9
$MIRRTEXT
 70
     1
  9
$LTSCALE
 40
1.0
  9
$ATTMODE
 70
     1
  9
$TEXTSIZE
 40
0.2
  9
$TRACEWID
 40
0.05
  9
$TEXTSTYLE
  7
Standard
  9
$CLAYER
  8
0
  9
$CELTYPE
  6
ByLayer
  9
$CECOLOR
 62
   256
  9
$CELTSCALE
 40
1.0
  9
$DISPSILH
 70
     0
  9
$DIMSCALE
 40
1.0
  9
$DIMASZ
 40
0.09
  9
$DIMEXO
 40
0.05
  9
$DIMDLI
 40
0.38
  9
$DIMRND
 40
0.0
  9
$DIMDLE
 40
0.0
  9
$DIMEXE
 40
0.0625
  9
$DIMTP
 40
0.0
  9
$DIMTM
 40
0.0
  9
$DIMTXT
 40
0.1666666666666666
  9
$DIMCEN
 40
0.09
  9
$DIMTSZ
 40
0.0
  9
$DIMTOL
 70
     0
  9
$DIMLIM
 70
     0
  9
$DIMTIH
 70
     1
  9
$DIMTOH
 70
     1
  9
$DIMSE1
 70
     0
  9
$DIMSE2
 70
     0
  9
$DIMTAD
 70
     0
  9
$DIMZIN
 70
     0
  9
$DIMBLK
  1

  9
$DIMASO
 70
     1
  9
$DIMSHO
 70
     1
  9
$DIMPOST
  1

  9
$DIMAPOST
  1

  9
$DIMALT
 70
     0
  9
$DIMALTD
 70
     2
  9
$DIMALTF
 40
25.4
  9
$DIMLFAC
 40
1.0
  9
$DIMTOFL
 70
     0
  9
$DIMTVP
 40
0.0
  9
$DIMTIX
 70
     0
  9
$DIMSOXD
 70
     0
  9
$DIMSAH
 70
     0
  9
$DIMBLK1
  1

  9
$DIMBLK2
  1

  9
$DIMSTYLE
  2
Standard
  9
$DIMCLRD
 70
     0
  9
$DIMCLRE
 70
     0
  9
$DIMCLRT
 70
     0
  9
$DIMTFAC
 40
1.0
  9
$DIMGAP
 40
0.06
  9
$DIMJUST
 70
     0
  9
$DIMSD1
 70
     0
  9
$DIMSD2
 70
     0
  9
$DIMTOLJ
 70
     1
  9
$DIMTZIN
 70
     0
  9
$DIMALTZ
 70
     0
  9
$DIMALTTZ
 70
     0
  9
$DIMUPT
 70
     0
  9
$DIMDEC
 70
     4
  9
$DIMTDEC
 70
     4
  9
$DIMALTU
 70
     2
  9
$DIMALTTD
 70
     2
  9
$DIMTXSTY
  7
Standard
  9
$DIMAUNIT
 70
     0
  9
$DIMADEC
 70
     0
  9
$DIMALTRND
 40
0.0
  9
$DIMAZIN
 70
     0
  9
$DIMDSEP
 70
    46
  9
$DIMATFIT
 70
     3
  9
$DIMFRAC
 70
     0
  9
$DIMLDRBLK
  1

  9
$DIMLUNIT
 70
     2
  9
$DIMLWD
 70
    -2
  9
$DIMLWE
 70
    -2
  9
$DIMTMOVE
 70
     0
  9
$LUNITS
 70
     2
  9
$LUPREC
 70
     3
  9
$SKETCHINC
 40
0.1
  9
$FILLETRAD
 40
0.5
  9
$AUNITS
 70
     0
  9
$AUPREC
 70
     0
  9
$MENU
  1
.
  9
$ELEVATION
 40
0.0
  9
$PELEVATION
 40
0.0
  9
$THICKNESS
 40
0.0
  9
$LIMCHECK
 70
     0
  9
$CHAMFERA
 40
0.5
  9
$CHAMFERB
 40
0.5
  9
$CHAMFERC
 40
1.0
  9
$CHAMFERD
 40
0.0
  9
$SKPOLY
 70
     0
  9
$TDCREATE
 40
2454719.583409224
  9
$TDUCREATE
 40
2454719.791742558
  9
$TDUPDATE
 40
2454719.605478646
  9
$TDUUPDATE
 40
2454719.813811979
  9
$TDINDWG
 40
0.0071060764
  9
$TDUSRTIMER
 40
0.0071060764
  9
$USRTIMER
 70
     1
  9
$ANGBASE
 50
0.0
  9
$ANGDIR
 70
     0
  9
$PDMODE
 70
     0
  9
$PDSIZE
 40
-1.0
  9
$PLINEWID
 40
0.0
  9
$SPLFRAME
 70
     0
  9
$SPLINETYPE
 70
     6
  9
$SPLINESEGS
 70
     8
  9
$HANDSEED
  5
14A
  9
$SURFTAB1
 70
     6
  9
$SURFTAB2
 70
     6
  9
$SURFTYPE
 70
     6
  9
$SURFU
 70
     6
  9
$SURFV
 70
     6
  9
$UCSBASE
  2

  9
$UCSNAME
  2

  9
$UCSORG
 10
0.0
 20
0.0
 30
0.0
  9
$UCSXDIR
 10
1.0
 20
0.0
 30
0.0
  9
$UCSYDIR
 10
0.0
 20
1.0
 30
0.0
  9
$UCSORTHOREF
  2

  9
$UCSORTHOVIEW
 70
     0
  9
$UCSORGTOP
 10
0.0
 20
0.0
 30
0.0
  9
$UCSORGBOTTOM
 10
0.0
 20
0.0
 30
0.0
  9
$UCSORGLEFT
 10
0.0
 20
0.0
 30
0.0
  9
$UCSORGRIGHT
 10
0.0
 20
0.0
 30
0.0
  9
$UCSORGFRONT
 10
0.0
 20
0.0
 30
0.0
  9
$UCSORGBACK
 10
0.0
 20
0.0
 30
0.0
  9
$PUCSBASE
  2

  9
$PUCSNAME
  2

  9
$PUCSORG
 10
0.0
 20
0.0
 30
0.0
  9
$PUCSXDIR
 10
1.0
 20
0.0
 30
0.0
  9
$PUCSYDIR
 10
0.0
 20
1.0
 30
0.0
  9
$PUCSORTHOREF
  2

  9
$PUCSORTHOVIEW
 70
     0
  9
$PUCSORGTOP
 10
0.0
 20
0.0
 30
0.0
  9
$PUCSORGBOTTOM
 10
0.0
 20
0.0
 30
0.0
  9
$PUCSORGLEFT
 10
0.0
 20
0.0
 30
0.0
  9
$PUCSORGRIGHT
 10
0.0
 20
0.0
 30
0.0
  9
$PUCSORGFRONT
 10
0.0
 20
0.0
 30
0.0
  9
$PUCSORGBACK
 10
0.0
 20
0.0
 30
0.0
  9
$USERI1
 70
     0
  9
$USERI2
 70
     0
  9
$USERI3
 70
     0
  9
$USERI4
 70
     0
  9
$USERI5
 70
     0
  9
$USERR1
 40
0.0
  9
$USERR2
 40
0.0
  9
$USERR3
 40
0.0
  9
$USERR4
 40
0.0
  9
$USERR5
 40
0.0
  9
$WORLDVIEW
 70
     1
  9
$SHADEDGE
 70
     3
  9
$SHADEDIF
 70
    70
  9
$TILEMODE
 70
     1
  9
$MAXACTVP
 70
    64
  9
$PINSBASE
 10
0.0
 20
0.0
 30
0.0
  9
$PLIMCHECK
 70
     0
  9
$PEXTMIN
 10
1.000000000000000E+20
 20
1.000000000000000E+20
 30
1.000000000000000E+20
  9
$PEXTMAX
 10
-1.000000000000000E+20
 20
-1.000000000000000E+20
 30
-1.000000000000000E+20
  9
$PLIMMIN
 10
0.0
 20
0.0
  9
$PLIMMAX
 10
12.0
 20
9.0
  9
$UNITMODE
 70
     0
  9
$VISRETAIN
 70
     1
  9
$PLINEGEN
 70
     0
  9
$PSLTSCALE
 70
     1
  9
$TREEDEPTH
 70
  3020
  9
$CMLSTYLE
  2
Standard
  9
$CMLJUST
 70
     0
  9
$CMLSCALE
 40
1.0
  9
$PROXYGRAPHICS
 70
     1
  9
$MEASUREMENT
 70
     0
  9
$CELWEIGHT
370
    -1
  9
$ENDCAPS
280
     0
  9
$JOINSTYLE
280
     0
  9
$LWDISPLAY
290
     1
  9
$INSUNITS
 70
     1
  9
$HYPERLINKBASE
  1

  9
$STYLESHEET
  1

  9
$XEDIT
290
     1
  9
$CEPSNTYPE
380
     0
  9
$PSTYLEMODE
290
     1
  9
$FINGERPRINTGUID
  2
{FD1BCF83-37BD-43D5-9AD0-E3F782E704E7}
  9
$VERSIONGUID
  2
{EFD2E73A-20DE-4497-9D4E-8FE849449E7A}
  9
$EXTNAMES
290
     1
  9
$PSVPSCALE
 40
0.0
  9
$OLESTARTUP
290
     0
  0
ENDSEC
  0
SECTION
  2
CLASSES
  0
CLASS
  1
ACDBDICTIONARYWDFLT
  2
AcDbDictionaryWithDefault
  3
AutoCAD 2000
 90
        0
280
     0
281
     0
  0
CLASS
  1
VISUALSTYLE
  2
AcDbVisualStyle
  3
ObjectDBX Classes
 90
     4095
280
     0
281
     0
  0
CLASS
  1
SCALE
  2
AcDbScale
  3
ObjectDBX Classes
 90
     1153
280
     0
281
     0
  0
CLASS
  1
DICTIONARYVAR
  2
AcDbDictionaryVar
  3
AutoCAD 2000
 90
        0
280
     0
281
     0
  0
CLASS
  1
ACDBPLACEHOLDER
  2
AcDbPlaceHolder
  3
AutoCAD 2000
 90
        0
280
     0
281
     0
  0
CLASS
  1
LAYOUT
  2
AcDbLayout
  3
AutoCAD 2000
 90
        0
280
     0
281
     0
  0
ENDSEC
  0
SECTION
  2
TABLES
  0
TABLE
  2
VPORT
  5
8
330
0
100
AcDbSymbolTable
 70
     4
  0
VPORT
  5
149
330
8
100
AcDbSymbolTableRecord
100
AcDbViewportTableRecord
  2
*Active
 70
     0
 10
0.0
 20
0.0
 11
1.0
 21
1.0
 12
5.766120543028691
 22
3.679809946413925
 13
0.0
 23
0.0
 14
0.5
 24
0.5
 15
0.5
 25
0.5
 16
0.0
 26
0.0
 36
1.0
 17
0.0
 27
0.0
 37
0.0
 40
51.53261004229193
 41
1.775280898876404
 42
50.0
 43
0.0
 44
0.0
 50
0.0
 51
0.0
 71
     0
 72
  2000
 73
     1
 74
     3
 75
     0
 76
     0
 77
     0
 78
     0
281
     0
 65
     1
110
0.0
120
0.0
130
0.0
111
1.0
121
0.0
131
0.0
112
0.0
122
1.0
132
0.0
 79
     0
146
0.0
  0
ENDTAB
  0
TABLE
  2
LTYPE
  5
5
330
0
100
AcDbSymbolTable
 70
     6
  0
LTYPE
  5
14
330
5
100
AcDbSymbolTableRecord
100
AcDbLinetypeTableRecord
  2
ByBlock
 70
     0
  3

 72
    65
 73
     0
 40
0.0
  0
LTYPE
  5
15
330
5
100
AcDbSymbolTableRecord
100
AcDbLinetypeTableRecord
  2
ByLayer
 70
     0
  3

 72
    65
 73
     0
 40
0.0
  0
LTYPE
  5
16
330
5
100
AcDbSymbolTableRecord
100
AcDbLinetypeTableRecord
  2
Continuous
 70
     0
  3
Solid line
 72
    65
 73
     0
 40
0.0
  0
LTYPE
  5
5D
330
5
100
AcDbSymbolTableRecord
100
AcDbLinetypeTableRecord
  2
HIDDEN
 70
     0
  3
Hidden __ __ __ __ __ __ __ __ __ __ __ __ __ __
 72
    65
 73
     2
 40
0.075
 49
0.05
 74
     0
 49
-0.025
 74
     0
  0
LTYPE
  5
5E
330
5
100
AcDbSymbolTableRecord
100
AcDbLinetypeTableRecord
  2
PHANTOM
 70
     0
  3
Phantom ______  __  __  ______  __  __  ______
 72
    65
 73
     6
 40
0.5
 49
0.25
 74
     0
 49
-0.05
 74
     0
 49
0.05
 74
     0
 49
-0.05
 74
     0
 49
0.05
 74
     0
 49
-0.05
 74
     0
  0
LTYPE
  5
5F
330
5
100
AcDbSymbolTableRecord
100
AcDbLinetypeTableRecord
  2
CENTER
 70
     0
  3
Center ____ _ ____ _ ____ _ ____ _ ____ _ ____
 72
    65
 73
     4
 40
0.4
 49
0.25
 74
     0
 49
-0.05
 74
     0
 49
0.05
 74
     0
 49
-0.05
 74
     0
  0
LTYPE
  5
60
330
5
100
AcDbSymbolTableRecord
100
AcDbLinetypeTableRecord
  2
CENTERX2
 70
     0
  3
Center (2x) ________  __  ________  __  _____
 72
    65
 73
     4
 40
0.8
 49
0.5
 74
     0
 49
-0.1
 74
     0
 49
0.1
 74
     0
 49
-0.1
 74
     0
  0
LTYPE
  5
61
330
5
100
AcDbSymbolTableRecord
100
AcDbLinetypeTableRecord
  2
DOT2
 70
     0
  3
Dot (.5x) ........................................
 72
    65
 73
     2
 40
0.025
 49
0.0
 74
     0
 49
-0.025
 74
     0
  0
ENDTAB
  0
TABLE
  2
LAYER
  5
2
330
0
100
AcDbSymbolTable
 70
     3
  0
LAYER
  5
10
330
2
100
AcDbSymbolTableRecord
100
AcDbLayerTableRecord
  2
0
 70
     0
 62
     7
  6
Continuous
370
    -3
390
F
  0
LAYER
  5
62
330
2
100
AcDbSymbolTableRecord
100
AcDbLayerTableRecord
  2
SLD-0
 70
     0
 62
    -7
  6
Continuous
370
    -3
390
F
  0
LAYER
  5
63
330
2
100
AcDbSymbolTableRecord
100
AcDbLayerTableRecord
  2
FORMAT
 70
     0
 62
     7
  6
Continuous
370
    -3
390
F
  0
ENDTAB
  0
TABLE
  2
STYLE
  5
3
330
0
100
AcDbSymbolTable
 70
     2
  0
STYLE
  5
11
330
3
100
AcDbSymbolTableRecord
100
AcDbTextStyleTableRecord
  2
Standard
 70
     0
 40
0.0
 41
1.0
 50
0.0
 71
     0
 42
0.2
  3
txt
  4

  0
STYLE
  5
12B
330
3
100
AcDbSymbolTableRecord
100
AcDbTextStyleTableRecord
  2
SLDTEXTSTYLE0
 70
     0
 40
0.0
 41
0.75
 50
0.0
 71
     0
 42
0.2
  3
TXT
  4

  0
ENDTAB
  0
TABLE
  2
VIEW
  5
6
330
0
100
AcDbSymbolTable
 70
     0
  0
ENDTAB
  0
TABLE
  2
UCS
  5
7
330
0
100
AcDbSymbolTable
 70
     0
  0
ENDTAB
  0
TABLE
  2
APPID
  5
9
330
0
100
AcDbSymbolTable
 70
     1
  0
APPID
  5
12
330
9
100
AcDbSymbolTableRecord
100
AcDbRegAppTableRecord
  2
ACAD
 70
     0
  0
ENDTAB
  0
TABLE
  2
DIMSTYLE
  5
A
330
0
100
AcDbSymbolTable
 70
     1
100
AcDbDimStyleTable
 71
     1
340
27
  0
DIMSTYLE
105
27
330
A
100
AcDbSymbolTableRecord
100
AcDbDimStyleTableRecord
  2
Standard
 70
     0
340
11
  0
ENDTAB
  0
TABLE
  2
BLOCK_RECORD
  5
1
330
0
100
AcDbSymbolTable
 70
     3
  0
BLOCK_RECORD
  5
1F
330
1
100
AcDbSymbolTableRecord
100
AcDbBlockTableRecord
  2
*Model_Space
340
22
  0
BLOCK_RECORD
  5
1B
330
1
100
AcDbSymbolTableRecord
100
AcDbBlockTableRecord
  2
*Paper_Space
340
1E
  0
BLOCK_RECORD
  5
23
330
1
100
AcDbSymbolTableRecord
100
AcDbBlockTableRecord
  2
*Paper_Space0
340
26
  0
ENDTAB
  0
ENDSEC
  0
SECTION
  2
BLOCKS
  0
BLOCK
  5
20
330
1F
100
AcDbEntity
  8
0
100
AcDbBlockBegin
  2
*Model_Space
 70
     0
 10
0.0
 20
0.0
 30
0.0
  3
*Model_Space
  1

  0
ENDBLK
  5
21
330
1F
100
AcDbEntity
  8
0
100
AcDbBlockEnd
  0
BLOCK
  5
1C
330
1B
100
AcDbEntity
 67
     1
  8
0
100
AcDbBlockBegin
  2
*Paper_Space
 70
     0
 10
0.0
 20
0.0
 30
0.0
  3
*Paper_Space
  1

  0
ENDBLK
  5
1D
330
1B
100
AcDbEntity
 67
     1
  8
0
100
AcDbBlockEnd
  0
BLOCK
  5
24
330
23
100
AcDbEntity
  8
0
100
AcDbBlockBegin
  2
*Paper_Space0
 70
     0
 10
0.0
 20
0.0
 30
0.0
  3
*Paper_Space0
  1

  0
ENDBLK
  5
25
330
23
100
AcDbEntity
  8
0
100
AcDbBlockEnd
  0
ENDSEC
  0
SECTION
  2
ENTITIES
  0
CIRCLE
  5
64
330
1F
100
AcDbEntity
  8
0
  6
Continuous
 62
     7
370
    -3
100
AcDbCircle
 10
-0.5138796326583014
 20
21.36980982594828
 30
0.0
 40
0.0470000000000006
  0
CIRCLE
  5
65
330
1F
100
AcDbEntity
  8
0
  6
Continuous
 62
     7
370
    -3
100
AcDbCircle
 10
12.48612036734174
 20
21.36980982594824
 30
0.0
 40
0.0470000000000006
  0
CIRCLE
  5
66
330
1F
100
AcDbEntity
  8
0
  6
Continuous
 62
     7
370
    -3
100
AcDbCircle
 10
12.48612036736648
 20
-14.01019017405213
 30
0.0
 40
0.0469999999999988
  0
CIRCLE
  5
67
330
1F
100
AcDbEntity
  8
0
  6
Continuous
 62
     7
370
    -3
100
AcDbCircle
 10
-0.5138796326335619
 20
-14.01019017405208
 30
0.0
 40
0.0470000000000006
  0
SPLINE
  5
68
330
1F
100
AcDbEntity
  8
0
  6
Continuous
 62
     7
370
    -3
100
AcDbSpline
210
0.0
220
0.0
230
1.0
 70
     8
 71
     3
 72
    11
 73
     7
 74
     0
 42
0.0000000001
 43
0.0000000001
 40
0.0
 40
0.0
 40
0.0
 40
0.0
 40
0.2500094830400494
 40
0.5000006787816391
 40
0.7500005991241835
 40
1.0
 40
1.0
 40
1.0
 40
1.0
 10
14.04862039950438
 20
29.0845484549062
 30
0.0
 10
14.04800417512881
 20
29.08617151135639
 30
0.0
 10
14.04677177145227
 20
29.089417505536
 30
0.0
 10
14.03729002468487
 20
29.09428714043214
 30
0.0
 10
14.02373802194355
 20
29.09915626157392
 30
0.0
 10
14.01299290568697
 20
29.10240246380772
 30
0.0
 10
14.00762035314042
 20
29.10402556323832
 30
0.0
  0
LINE
  5
69
330
1F
100
AcDbEntity
  8
0
  6
Continuous
 62
     7
370
    -3
100
AcDbLine
 10
14.04862039950438
 20
29.0845484549062
 30
0.0
 11
14.04862039950435
 21
21.16980959331159
 31
0.0
  0
CIRCLE
  5
6A
330
1F
100
AcDbEntity
  8
0
  6
Continuous
 62
     7
370
    -3
100
AcDbCircle
 10
12.48612036734178
 20
21.36980982594841
 30
0.0
 40
0.09375
  0
CIRCLE
  5
6B
330
1F
100
AcDbEntity
  8
0
  6
Continuous
 62
     7
370
    -3
100
AcDbCircle
 10
-0.5138796326582249
 20
21.36980982594849
 30
0.0
 40
0.0937500000000001
  0
LINE
  5
6C
330
1F
100
AcDbEntity
  8
0
  6
Continuous
 62
     7
370
    -3
100
AcDbLine
 10
14.00283716839617
 20
29.10881036129726
 30
0.0
 11
-2.030595872017151
 21
29.10881036129731
 31
0.0
  0
LINE
  5
6D
330
1F
100
AcDbEntity
  8
0
  6
Continuous
 62
     7
370
    -3
100
AcDbLine
 10
14.00762035314042
 20
29.10402556323832
 30
0.0
 11
14.00283716839617
 21
29.10881036129726
 31
0.0
  0
LINE
  5
6E
330
1F
100
AcDbEntity
  8
0
  6
Continuous
 62
     7
370
    -3
100
AcDbLine
 10
-2.030595872017151
 20
29.10881036129731
 30
0.0
 11
-2.03537949675631
 21
29.10402556323838
 31
0.0
  0
LINE
  5
6F
330
1F
100
AcDbEntity
  8
0
  6
Continuous
 62
     7
370
    -3
100
AcDbLine
 10
-2.076379983115193
 20
29.08454845490626
 30
0.0
 11
-2.076379983115221
 21
21.16980959331165
 31
0.0
  0
SPLINE
  5
70
330
1F
100
AcDbEntity
  8
0
  6
Continuous
 62
     7
370
    -3
100
AcDbSpline
210
0.0
220
0.0
230
1.0
 70
     8
 71
     3
 72
    11
 73
     7
 74
     0
 42
0.0000000001
 43
0.0000000001
 40
0.0
 40
0.0
 40
0.0
 40
0.0
 40
0.249992539537212
 40
0.4999987470965928
 40
0.7499910016959
 40
1.0
 40
1.0
 40
1.0
 40
1.0
 10
-2.03537949675631
 20
29.10402556323838
 30
0.0
 10
-2.040751870351507
 20
29.102402438698
 30
0.0
 10
-2.05149691126955
 20
29.09915610087498
 30
0.0
 10
-2.065049271569344
 20
29.0942872196164
 30
0.0
 10
-2.07453129232053
 20
29.08941751176406
 30
0.0
 10
-2.075763739093194
 20
29.08617151009217
 30
0.0
 10
-2.076379983115193
 20
29.08454845490626
 30
0.0
  0
SPLINE
  5
71
330
1F
100
AcDbEntity
  8
0
  6
Continuous
 62
     7
370
    -3
100
AcDbSpline
210
0.0
220
0.0
230
1.0
 70
     8
 71
     3
 72
    11
 73
     7
 74
     0
 42
0.0000000001
 43
0.0000000001
 40
0.0
 40
0.0
 40
0.0
 40
0.0
 40
0.2499942091861155
 40
0.4999935405929919
 40
0.7499765943518818
 40
0.9999999999999998
 40
0.9999999999999998
 40
0.9999999999999998
 40
0.9999999999999998
 10
13.99309824756769
 20
29.13780074639785
 30
0.0
 10
13.99390982046651
 20
29.13959191319101
 30
0.0
 10
13.99553298289277
 20
29.14317428347716
 30
0.0
 10
13.9979676410683
 20
29.14690222129096
 30
0.0
 10
14.00040269844319
 20
29.14935542153098
 30
0.0
 10
14.00202563475338
 20
29.14965903078039
 30
0.0
 10
14.00283716839617
 20
29.14981084765614
 30
0.0
  0
SPLINE
  5
72
330
1F
100
AcDbEntity
  8
0
  6
Continuous
 62
     7
370
    -3
100
AcDbSpline
210
0.0
220
0.0
230
1.0
 70
     8
 71
     3
 72
    11
 73
     7
 74
     0
 42
0.0000000001
 43
0.0000000001
 40
0.0
 40
0.0
 40
0.0
 40
0.0
 40
0.2499636534195658
 40
0.499998458336206
 40
0.750021570486608
 40
1.0
 40
1.0
 40
1.0
 40
1.0
 10
14.00283716839617
 20
29.10881036129726
 30
0.0
 10
14.0020255336171
 20
29.11149444388495
 30
0.0
 10
14.00040203302924
 20
29.1168633730774
 30
0.0
 10
13.99796785974401
 20
29.12458751816194
 30
0.0
 10
13.99553317567242
 20
29.13178600424605
 30
0.0
 10
13.99390984191286
 20
29.1357959517969
 30
0.0
 10
13.99309824756769
 20
29.13780074639785
 30
0.0
  0
SPLINE
  5
73
330
1F
100
AcDbEntity
  8
0
  6
Continuous
 62
     7
370
    -3
100
AcDbSpline
210
0.0
220
0.0
230
1.0
 70
     8
 71
     3
 72
    11
 73
     7
 74
     0
 42
0.0000000001
 43
0.0000000001
 40
0.0
 40
0.0
 40
0.0
 40
0.0
 40
0.2499785876048553
 40
0.5000012252439331
 40
0.7500361885731448
 40
1.0
 40
1.0
 40
1.0
 40
1.0
 10
-2.020857317851093
 20
29.13780074639791
 30
0.0
 10
-2.021668895345925
 20
29.13579595391184
 30
0.0
 10
-2.023292193347907
 20
29.13178601566472
 30
0.0
 10
-2.025726688090412
 20
29.12458750541597
 30
0.0
 10
-2.028160815989075
 20
29.11686337464058
 30
0.0
 10
-2.02978426368224
 20
29.11149444440471
 30
0.0
 10
-2.030595872017153
 20
29.10881036129732
 30
0.0
  0
SPLINE
  5
74
330
1F
100
AcDbEntity
  8
0
  6
Continuous
 62
     7
370
    -3
100
AcDbSpline
210
0.0
220
0.0
230
1.0
 70
     8
 71
     3
 72
    11
 73
     7
 74
     0
 42
0.0000000001
 43
0.0000000001
 40
0.0
 40
0.0
 40
0.0
 40
0.0
 40
0.2500235639980674
 40
0.5000067758770798
 40
0.7500056326302222
 40
0.9999999999999998
 40
0.9999999999999998
 40
0.9999999999999998
 40
0.9999999999999998
 10
-2.030595872017151
 20
29.1498108476562
 30
0.0
 10
-2.029784364816912
 20
29.14965903046442
 30
0.0
 10
-2.028161481388228
 20
29.14935542058314
 30
0.0
 10
-2.025726469424863
 20
29.14690222715462
 30
0.0
 10
-2.023292000577224
 20
29.14317427607776
 30
0.0
 10
-2.021668873901847
 20
29.13959191223598
 30
0.0
 10
-2.020857317851096
 20
29.13780074639792
 30
0.0
  0
LINE
  5
75
330
1F
100
AcDbEntity
  8
0
  6
Continuous
 62
     7
370
    -3
100
AcDbLine
 10
14.00283716839617
 20
29.14981084765614
 30
0.0
 11
-2.030595872017151
 21
29.1498108476562
 31
0.0
  0
SPLINE
  5
76
330
1F
100
AcDbEntity
  8
0
  6
Continuous
 62
     7
370
    -3
100
AcDbSpline
210
0.0
220
0.0
230
1.0
 70
    24
 71
     1
 72
     4
 73
     2
 74
     0
 42
0.0000000001
 43
0.0000000001
 40
0.0
 40
0.0
 40
1.0
 40
1.0
 10
14.00283716839617
 20
29.109810029749
 30
0.0
 10
14.00283716839617
 20
29.14981084765614
 30
0.0
  0
SPLINE
  5
77
330
1F
100
AcDbEntity
  8
0
  6
Continuous
 62
     7
370
    -3
100
AcDbSpline
210
0.0
220
0.0
230
1.0
 70
    24
 71
     1
 72
     4
 73
     2
 74
     0
 42
0.0000000001
 43
0.0000000001
 40
0.0
 40
0.0
 40
1.0
 40
1.0
 10
-2.030595872017151
 20
29.1498108476562
 30
0.0
 10
-2.030595872017151
 20
29.10981002974906
 30
0.0
  0
LINE
  5
78
330
1F
100
AcDbEntity
  8
0
  6
Continuous
 62
     7
370
    -3
100
AcDbLine
 10
14.00283716839617
 20
29.109810029749
 30
0.0
 11
14.00762035314042
 21
29.109810029749
 31
0.0
  0
LINE
  5
79
330
1F
100
AcDbEntity
  8
0
  6
Continuous
 62
     7
370
    -3
100
AcDbLine
 10
14.00283716839617
 20
29.14981084765614
 30
0.0
 11
14.00762035314042
 21
29.14981084765614
 31
0.0
  0
SPLINE
  5
7A
330
1F
100
AcDbEntity
  8
0
  6
Continuous
 62
     7
370
    -3
100
AcDbSpline
210
0.0
220
0.0
230
1.0
 70
    24
 71
     1
 72
     4
 73
     2
 74
     0
 42
0.0000000001
 43
0.0000000001
 40
0.0
 40
0.0
 40
1.0
 40
1.0
 10
14.00762035314042
 20
29.14981084765614
 30
0.0
 10
14.00762035314042
 20
29.109810029749
 30
0.0
  0
LINE
  5
7B
330
1F
100
AcDbEntity
  8
0
  6
Continuous
 62
     7
370
    -3
100
AcDbLine
 10
-2.03537949675631
 20
29.1498108476562
 30
0.0
 11
-2.030595872017151
 21
29.1498108476562
 31
0.0
  0
SPLINE
  5
7C
330
1F
100
AcDbEntity
  8
0
  6
Continuous
 62
     7
370
    -3
100
AcDbSpline
210
0.0
220
0.0
230
1.0
 70
    24
 71
     1
 72
     4
 73
     2
 74
     0
 42
0.0000000001
 43
0.0000000001
 40
0.0
 40
0.0
 40
1.0
 40
1.0
 10
-2.03537949675631
 20
29.10981002974906
 30
0.0
 10
-2.03537949675631
 20
29.1498108476562
 30
0.0
  0
LINE
  5
7D
330
1F
100
AcDbEntity
  8
0
  6
Continuous
 62
     7
370
    -3
100
AcDbLine
 10
-2.03537949675631
 20
29.10981002974906
 30
0.0
 11
-2.030595872017151
 21
29.10981002974906
 31
0.0
  0
SPLINE
  5
7E
330
1F
100
AcDbEntity
  8
0
  6
Continuous
 62
     7
370
    -3
100
AcDbSpline
210
0.0
220
0.0
230
1.0
 70
    24
 71
     1
 72
     4
 73
     2
 74
     0
 42
0.0000000001
 43
0.0000000001
 40
0.0
 40
0.0
 40
1.0
 40
1.0
 10
14.00862038825459
 20
29.10881036129726
 30
0.0
 10
14.04862039950438
 20
29.10881036129726
 30
0.0
  0
SPLINE
  5
7F
330
1F
100
AcDbEntity
  8
0
  6
Continuous
 62
     7
370
    -3
100
AcDbSpline
210
0.0
220
0.0
230
1.0
 70
     8
 71
     3
 72
    11
 73
     7
 74
     0
 42
0.0000000001
 43
0.0000000001
 40
0.0
 40
0.0
 40
0.0
 40
0.0
 40
0.2499999075871232
 40
0.5000147666510434
 40
0.7500064690873093
 40
1.0
 40
1.0
 40
1.0
 40
1.0
 10
14.00762035314042
 20
29.14981084765614
 30
0.0
 10
14.01299298684399
 20
29.1491946019941
 30
0.0
 10
14.02373857556651
 20
29.14796207381489
 30
0.0
 10
14.03728954762569
 20
29.1384792615017
 30
0.0
 10
14.04677162753478
 20
29.12492762568626
 30
0.0
 10
14.04800414067872
 20
29.11418279585842
 30
0.0
 10
14.04862039950438
 20
29.10881036129726
 30
0.0
  0
SPLINE
  5
80
330
1F
100
AcDbEntity
  8
0
  6
Continuous
 62
     7
370
    -3
100
AcDbSpline
210
0.0
220
0.0
230
1.0
 70
     8
 71
     3
 72
    11
 73
     7
 74
     0
 42
0.0000000001
 43
0.0000000001
 40
0.0
 40
0.0
 40
0.0
 40
0.0
 40
0.2499930463305211
 40
0.4999858077225598
 40
0.750006953669479
 40
1.0
 40
1.0
 40
1.0
 40
1.0
 10
-2.076379983115193
 20
29.10881036129731
 30
0.0
 10
-2.075763704641183
 20
29.11418279848671
 30
0.0
 10
-2.074531148395586
 20
29.1249276667421
 30
0.0
 10
-2.06504879452074
 20
29.13847940545391
 30
0.0
 10
-2.051497464866296
 20
29.14796188053829
 30
0.0
 10
-2.040751951502151
 20
29.14919454837457
 30
0.0
 10
-2.03537949675631
 20
29.1498108476562
 30
0.0
  0
SPLINE
  5
81
330
1F
100
AcDbEntity
  8
0
  6
Continuous
 62
     7
370
    -3
100
AcDbSpline
210
0.0
220
0.0
230
1.0
 70
    24
 71
     1
 72
     4
 73
     2
 74
     0
 42
0.0000000001
 43
0.0000000001
 40
0.0
 40
0.0
 40
1.0
 40
1.0
 10
-2.076379983115193
 20
29.10881036129731
 30
0.0
 10
-2.036379165208054
 20
29.10881036129731
 30
0.0
  0
LINE
  5
82
330
1F
100
AcDbEntity
  8
0
  6
Continuous
 62
     7
370
    -3
100
AcDbLine
 10
14.04862039950438
 20
29.10881036129726
 30
0.0
 11
14.04862039950438
 21
29.0845484549062
 31
0.0
  0
LINE
  5
83
330
1F
100
AcDbEntity
  8
0
  6
Continuous
 62
     7
370
    -3
100
AcDbLine
 10
-2.076379983115193
 20
29.08454845490626
 30
0.0
 11
-2.076379983115193
 21
29.10881036129731
 31
0.0
  0
SPLINE
  5
84
330
1F
100
AcDbEntity
  8
0
  6
Continuous
 62
     7
370
    -3
100
AcDbSpline
210
0.0
220
0.0
230
1.0
 70
     8
 71
     3
 72
    11
 73
     7
 74
     0
 42
0.0000000001
 43
0.0000000001
 40
0.0
 40
0.0
 40
0.0
 40
0.0
 40
0.2499931659717909
 40
0.5
 40
0.7500068340282091
 40
1.0
 40
1.0
 40
1.0
 40
1.0
 10
-2.076379983115381
 20
-21.72492880301004
 30
0.0
 10
-2.075763611202954
 20
-21.72655191755435
 30
0.0
 10
-2.074530833678759
 20
-21.7297982353847
 30
0.0
 10
-2.065049674503086
 20
-21.7346673571761
 30
0.0
 10
-2.051496873571359
 20
-21.7395364789675
 30
0.0
 10
-2.040751857785796
 20
-21.74278279679784
 30
0.0
 10
-2.035379496756498
 20
-21.74440591134216
 30
0.0
  0
LINE
  5
85
330
1F
100
AcDbEntity
  8
0
  6
Continuous
 62
     7
370
    -3
100
AcDbLine
 10
-2.076379983115381
 20
-21.72492880301004
 30
0.0
 11
-2.076379983115352
 21
-13.830190350369
 31
0.0
  0
CIRCLE
  5
86
330
1F
100
AcDbEntity
  8
0
  6
Continuous
 62
     7
370
    -3
100
AcDbCircle
 10
-0.5138796326329521
 20
-14.01019017404792
 30
0.0
 40
0.09375
  0
CIRCLE
  5
87
330
1F
100
AcDbEntity
  8
0
  6
Continuous
 62
     7
370
    -3
100
AcDbCircle
 10
12.48612036736706
 20
-14.01019017404799
 30
0.0
 40
0.09375
  0
LINE
  5
88
330
1F
100
AcDbEntity
  8
0
  6
Continuous
 62
     7
370
    -3
100
AcDbLine
 10
-2.030595872017339
 20
-21.74919070940109
 30
0.0
 11
14.00283716839599
 21
-21.74919070940115
 31
0.0
  0
LINE
  5
89
330
1F
100
AcDbEntity
  8
0
  6
Continuous
 62
     7
370
    -3
100
AcDbLine
 10
-2.035379496756498
 20
-21.74440591134216
 30
0.0
 11
-2.030595872017339
 21
-21.74919070940109
 31
0.0
  0
LINE
  5
8A
330
1F
100
AcDbEntity
  8
0
  6
Continuous
 62
     7
370
    -3
100
AcDbLine
 10
14.00283716839599
 20
-21.74919070940115
 30
0.0
 11
14.00762035314023
 21
-21.74440591134222
 31
0.0
  0
SPLINE
  5
8B
330
1F
100
AcDbEntity
  8
0
  6
Continuous
 62
     7
370
    -3
100
AcDbSpline
210
0.0
220
0.0
230
1.0
 70
     8
 71
     3
 72
    11
 73
     7
 74
     0
 42
0.0000000001
 43
0.0000000001
 40
0.0
 40
0.0
 40
0.0
 40
0.0
 40
0.2499953141837643
 40
0.5000245969741846
 40
0.7500087556249339
 40
1.0
 40
1.0
 40
1.0
 40
1.0
 10
-2.020857317851281
 20
-21.77818109450169
 30
0.0
 10
-2.021668904436055
 20
-21.77997230472598
 30
0.0
 10
-2.02329218788153
 20
-21.78355496855878
 30
0.0
 10
-2.025726294348009
 20
-21.7872823032805
 30
0.0
 10
-2.0281613122526
 20
-21.78973569968735
 30
0.0
 10
-2.029784344428474
 20
-21.79003936230125
 30
0.0
 10
-2.030595872017341
 20
-21.79019119575998
 30
0.0
  0
SPLINE
  5
8C
330
1F
100
AcDbEntity
  8
0
  6
Continuous
 62
     7
370
    -3
100
AcDbSpline
210
0.0
220
0.0
230
1.0
 70
     8
 71
     3
 72
    11
 73
     7
 74
     0
 42
0.0000000001
 43
0.0000000001
 40
0.0
 40
0.0
 40
0.0
 40
0.0
 40
0.2499686950243907
 40
0.4999955619983866
 40
0.7500198061578263
 40
1.0
 40
1.0
 40
1.0
 40
1.0
 10
-2.030595872017341
 20
-21.7491907094011
 30
0.0
 10
-2.029784277211599
 20
-21.75187475022154
 30
0.0
 10
-2.028160898728247
 20
-21.75724345648418
 30
0.0
 10
-2.025726620571928
 20
-21.76496806285681
 30
0.0
 10
-2.023292202352367
 20
-21.77216633472134
 30
0.0
 10
-2.021668898347363
 20
-21.7761762923338
 30
0.0
 10
-2.020857317851281
 20
-21.77818109450169
 30
0.0
  0
SPLINE
  5
8D
330
1F
100
AcDbEntity
  8
0
  6
Continuous
 62
     7
370
    -3
100
AcDbSpline
210
0.0
220
0.0
230
1.0
 70
     8
 71
     3
 72
    11
 73
     7
 74
     0
 42
0.0000000001
 43
0.0000000001
 40
0.0
 40
0.0
 40
0.0
 40
0.0
 40
0.2499800357405476
 40
0.5000047544052116
 40
0.7500314630117315
 40
0.9999999999999998
 40
0.9999999999999998
 40
0.9999999999999998
 40
0.9999999999999998
 10
13.9930982475675
 20
-21.77818109450175
 30
0.0
 10
13.99390984491396
 20
-21.77617629021903
 30
0.0
 10
13.99553318467663
 20
-21.77216632330289
 30
0.0
 10
13.9979677922223
 20
-21.76496807560184
 30
0.0
 10
14.00040211577009
 20
-21.7572434549225
 30
0.0
 10
14.00202554714637
 20
-21.7518747497021
 30
0.0
 10
14.00283716839599
 20
-21.74919070940115
 30
0.0
  0
SPLINE
  5
8E
330
1F
100
AcDbEntity
  8
0
  6
Continuous
 62
     7
370
    -3
100
AcDbSpline
210
0.0
220
0.0
230
1.0
 70
     8
 71
     3
 72
    11
 73
     7
 74
     0
 42
0.0000000001
 43
0.0000000001
 40
0.0
 40
0.0
 40
0.0
 40
0.0
 40
0.2499910862272454
 40
0.4999750867705329
 40
0.7500048439872371
 40
1.0
 40
1.0
 40
1.0
 40
1.0
 10
14.00283716839599
 20
-21.79019119576004
 30
0.0
 10
14.00202561436472
 20
-21.79003936261723
 30
0.0
 10
14.00040252930467
 20
-21.78973570063514
 30
0.0
 10
13.99796746598493
 20
-21.7872822974198
 30
0.0
 10
13.99553317020332
 20
-21.78355497595494
 30
0.0
 10
13.9939098510021
 20
-21.77997230568047
 30
0.0
 10
13.9930982475675
 20
-21.77818109450175
 30
0.0
  0
LINE
  5
8F
330
1F
100
AcDbEntity
  8
0
  6
Continuous
 62
     7
370
    -3
100
AcDbLine
 10
-2.030595872017339
 20
-21.79019119575998
 30
0.0
 11
14.00283716839599
 21
-21.79019119576004
 31
0.0
  0
LINE
  5
90
330
1F
100
AcDbEntity
  8
0
  6
Continuous
 62
     7
370
    -3
100
AcDbLine
 10
14.04862039950419
 20
-21.7249288030101
 30
0.0
 11
14.04862039950423
 21
-13.83019035036905
 31
0.0
  0
SPLINE
  5
91
330
1F
100
AcDbEntity
  8
0
  6
Continuous
 62
     7
370
    -3
100
AcDbSpline
210
0.0
220
0.0
230
1.0
 70
     8
 71
     3
 72
    11
 73
     7
 74
     0
 42
0.0000000001
 43
0.0000000001
 40
0.0
 40
0.0
 40
0.0
 40
0.0
 40
0.2500000273082921
 40
0.5000005740846138
 40
0.750006349369194
 40
1.0
 40
1.0
 40
1.0
 40
1.0
 10
14.00762035314023
 20
-21.74440591134222
 30
0.0
 10
14.01299289312047
 20
-21.74278282190812
 30
0.0
 10
14.02373798424439
 20
-21.73953663966737
 30
0.0
 10
14.03729042760865
 20
-21.73466727798958
 30
0.0
 10
14.04677131281562
 20
-21.72979822915937
 30
0.0
 10
14.048004047239
 20
-21.72655191881956
 30
0.0
 10
14.04862039950419
 20
-21.7249288030101
 30
0.0
  0
SPLINE
  5
92
330
1F
100
AcDbEntity
  8
0
  6
Continuous
 62
     7
370
    -3
100
AcDbSpline
210
0.0
220
0.0
230
1.0
 70
    24
 71
     1
 72
     4
 73
     2
 74
     0
 42
0.0000000001
 43
0.0000000001
 40
0.0
 40
0.0
 40
1.0
 40
1.0
 10
-2.030595872017339
 20
-21.75019037785284
 30
0.0
 10
-2.030595872017339
 20
-21.79019119575998
 30
0.0
  0
SPLINE
  5
93
330
1F
100
AcDbEntity
  8
0
  6
Continuous
 62
     7
370
    -3
100
AcDbSpline
210
0.0
220
0.0
230
1.0
 70
    24
 71
     1
 72
     4
 73
     2
 74
     0
 42
0.0000000001
 43
0.0000000001
 40
0.0
 40
0.0
 40
1.0
 40
1.0
 10
14.00283716839599
 20
-21.79019119576004
 30
0.0
 10
14.00283716839599
 20
-21.7501903778529
 30
0.0
  0
LINE
  5
94
330
1F
100
AcDbEntity
  8
0
  6
Continuous
 62
     7
370
    -3
100
AcDbLine
 10
-2.030595872017339
 20
-21.75019037785284
 30
0.0
 11
-2.035379496756498
 21
-21.75019037785284
 31
0.0
  0
LINE
  5
95
330
1F
100
AcDbEntity
  8
0
  6
Continuous
 62
     7
370
    -3
100
AcDbLine
 10
-2.030595872017339
 20
-21.79019119575998
 30
0.0
 11
-2.035379496756498
 21
-21.79019119575998
 31
0.0
  0
SPLINE
  5
96
330
1F
100
AcDbEntity
  8
0
  6
Continuous
 62
     7
370
    -3
100
AcDbSpline
210
0.0
220
0.0
230
1.0
 70
    24
 71
     1
 72
     4
 73
     2
 74
     0
 42
0.0000000001
 43
0.0000000001
 40
0.0
 40
0.0
 40
1.0
 40
1.0
 10
-2.035379496756498
 20
-21.79019119575998
 30
0.0
 10
-2.035379496756498
 20
-21.75019037785284
 30
0.0
  0
SPLINE
  5
97
330
1F
100
AcDbEntity
  8
0
  6
Continuous
 62
     7
370
    -3
100
AcDbSpline
210
0.0
220
0.0
230
1.0
 70
    24
 71
     1
 72
     4
 73
     2
 74
     0
 42
0.0000000001
 43
0.0000000001
 40
0.0
 40
0.0
 40
1.0
 40
1.0
 10
14.00762035314023
 20
-21.7501903778529
 30
0.0
 10
14.00762035314023
 20
-21.79019119576004
 30
0.0
  0
LINE
  5
98
330
1F
100
AcDbEntity
  8
0
  6
Continuous
 62
     7
370
    -3
100
AcDbLine
 10
14.00762035314023
 20
-21.79019119576004
 30
0.0
 11
14.00283716839599
 21
-21.79019119576004
 31
0.0
  0
LINE
  5
99
330
1F
100
AcDbEntity
  8
0
  6
Continuous
 62
     7
370
    -3
100
AcDbLine
 10
14.00762035314023
 20
-21.7501903778529
 30
0.0
 11
14.00283716839599
 21
-21.7501903778529
 31
0.0
  0
SPLINE
  5
9A
330
1F
100
AcDbEntity
  8
0
  6
Continuous
 62
     7
370
    -3
100
AcDbSpline
210
0.0
220
0.0
230
1.0
 70
     8
 71
     3
 72
    11
 73
     7
 74
     0
 42
0.0000000001
 43
0.0000000001
 40
0.0
 40
0.0
 40
0.0
 40
0.0
 40
0.2499943233162779
 40
0.500011638307382
 40
0.7500056766837221
 40
0.9999999999999998
 40
0.9999999999999998
 40
0.9999999999999998
 40
0.9999999999999998
 10
-2.035379496756498
 20
-21.79019119575998
 30
0.0
 10
-2.04075192270054
 20
-21.78957492161474
 30
0.0
 10
-2.051497268684125
 20
-21.78834231664627
 30
0.0
 10
-2.065048964328746
 20
-21.77885960704805
 30
0.0
 10
-2.07453112209013
 20
-21.76530802839865
 30
0.0
 10
-2.075763695872819
 20
-21.75456315110809
 30
0.0
 10
-2.076379983115381
 20
-21.74919070940109
 30
0.0
  0
SPLINE
  5
9B
330
1F
100
AcDbEntity
  8
0
  6
Continuous
 62
     7
370
    -3
100
AcDbSpline
210
0.0
220
0.0
230
1.0
 70
    24
 71
     1
 72
     4
 73
     2
 74
     0
 42
0.0000000001
 43
0.0000000001
 40
0.0
 40
0.0
 40
1.0
 40
1.0
 10
-2.036379165208243
 20
-21.74919070940109
 30
0.0
 10
-2.076379983115381
 20
-21.74919070940109
 30
0.0
  0
SPLINE
  5
9C
330
1F
100
AcDbEntity
  8
0
  6
Continuous
 62
     7
370
    -3
100
AcDbSpline
210
0.0
220
0.0
230
1.0
 70
     8
 71
     3
 72
    11
 73
     7
 74
     0
 42
0.0000000001
 43
0.0000000001
 40
0.0
 40
0.0
 40
0.0
 40
0.0
 40
0.2499948079400764
 40
0.4999877873943874
 40
0.7499988153529178
 40
1.0
 40
1.0
 40
1.0
 40
1.0
 10
14.04862039950419
 20
-21.74919070940116
 30
0.0
 10
14.04800413190958
 20
-21.75456314848035
 30
0.0
 10
14.04677160122779
 20
-21.76530798734422
 30
0.0
 10
14.03728971743696
 20
-21.77885946308858
 30
0.0
 10
14.0237383793747
 20
-21.78834250993053
 30
0.0
 10
14.01299295803976
 20
-21.78957497523769
 30
0.0
 10
14.00762035314023
 20
-21.79019119576004
 30
0.0
  0
SPLINE
  5
9D
330
1F
100
AcDbEntity
  8
0
  6
Continuous
 62
     7
370
    -3
100
AcDbSpline
210
0.0
220
0.0
230
1.0
 70
    24
 71
     1
 72
     4
 73
     2
 74
     0
 42
0.0000000001
 43
0.0000000001
 40
0.0
 40
0.0
 40
1.0
 40
1.0
 10
14.04862039950419
 20
-21.74919070940115
 30
0.0
 10
14.0086203882544
 20
-21.74919070940115
 30
0.0
  0
LINE
  5
9E
330
1F
100
AcDbEntity
  8
0
  6
Continuous
 62
     7
370
    -3
100
AcDbLine
 10
-2.076379983115381
 20
-21.74919070940109
 30
0.0
 11
-2.076379983115381
 21
-21.72492880301004
 31
0.0
  0
LINE
  5
9F
330
1F
100
AcDbEntity
  8
0
  6
Continuous
 62
     7
370
    -3
100
AcDbLine
 10
14.04862039950419
 20
-21.7249288030101
 30
0.0
 11
14.04862039950419
 21
-21.74919070940115
 31
0.0
  0
LINE
  5
A0
330
1F
100
AcDbEntity
  8
0
  6
Continuous
 62
     7
370
    -3
100
AcDbLine
 10
-3.615879958680262
 20
-13.7601900923513
 30
0.0
 11
-3.58187949812315
 21
-13.7601900923513
 31
0.0
  0
LINE
  5
A1
330
1F
100
AcDbEntity
  8
0
  6
Continuous
 62
     7
370
    -3
100
AcDbLine
 10
-3.615879958680262
 20
-13.7601900923513
 30
0.0
 11
-3.615879958680262
 21
-13.65925291171955
 31
0.0
  0
LINE
  5
A2
330
1F
100
AcDbEntity
  8
0
  6
Continuous
 62
     7
370
    -3
100
AcDbLine
 10
-3.58187949812315
 20
-13.7601900923513
 30
0.0
 11
-3.58187949812315
 21
-13.67525347354637
 31
0.0
  0
LINE
  5
A3
330
1F
100
AcDbEntity
  8
0
  6
Continuous
 62
     7
370
    -3
100
AcDbLine
 10
-3.615879958680135
 20
21.11980974424749
 30
0.0
 11
-3.581879498123023
 21
21.11980974424749
 31
0.0
  0
LINE
  5
A4
330
1F
100
AcDbEntity
  8
0
  6
Continuous
 62
     7
370
    -3
100
AcDbLine
 10
-3.581879498123023
 20
21.01487271648899
 30
0.0
 11
-3.581879498123023
 21
21.11980974424749
 31
0.0
  0
LINE
  5
A5
330
1F
100
AcDbEntity
  8
0
  6
Continuous
 62
     7
370
    -3
100
AcDbLine
 10
-3.615879958680135
 20
20.99887332798196
 30
0.0
 11
-3.615879958680135
 21
21.11980974424749
 31
0.0
  0
LINE
  5
A6
330
1F
100
AcDbEntity
  8
0
  6
Continuous
 62
     7
370
    -3
100
AcDbLine
 10
-3.547880210885818
 20
-13.7601900923513
 30
0.0
 11
-3.513879750328706
 21
-13.7601900923513
 31
0.0
  0
LINE
  5
A7
330
1F
100
AcDbEntity
  8
0
  6
Continuous
 62
     7
370
    -3
100
AcDbLine
 10
-3.513879750328706
 20
-13.7601900923513
 30
0.0
 11
-3.513879750328706
 21
-13.74325322134081
 31
0.0
  0
LINE
  5
A8
330
1F
100
AcDbEntity
  8
0
  6
Continuous
 62
     7
370
    -3
100
AcDbLine
 10
-3.547880210885818
 20
-13.7601900923513
 30
0.0
 11
-3.547880210885818
 21
-13.7092527607837
 31
0.0
  0
LINE
  5
A9
330
1F
100
AcDbEntity
  8
0
  6
Continuous
 62
     7
370
    -3
100
AcDbLine
 10
-3.547880210885691
 20
21.0488731770461
 30
0.0
 11
-3.547880210885691
 21
21.11980974424749
 31
0.0
  0
LINE
  5
AA
330
1F
100
AcDbEntity
  8
0
  6
Continuous
 62
     7
370
    -3
100
AcDbLine
 10
-3.547880210885691
 20
21.11980974424749
 30
0.0
 11
-3.513879750328579
 21
21.11980974424749
 31
0.0
  0
LINE
  5
AB
330
1F
100
AcDbEntity
  8
0
  6
Continuous
 62
     7
370
    -3
100
AcDbLine
 10
-3.513879750328579
 20
21.08287246428343
 30
0.0
 11
-3.513879750328579
 21
21.11980974424749
 31
0.0
  0
CIRCLE
  5
AC
330
1F
100
AcDbEntity
  8
0
  6
Continuous
 62
     7
370
    -3
100
AcDbCircle
 10
12.69062036734128
 20
11.25480982594804
 30
0.0
 40
0.0470000000000006
  0
CIRCLE
  5
AD
330
1F
100
AcDbEntity
  8
0
  6
Continuous
 62
     7
370
    -3
100
AcDbCircle
 10
12.69062036734122
 20
-3.845190174051952
 30
0.0
 40
0.0470000000000006
  0
LINE
  5
AE
330
1F
100
AcDbEntity
  8
0
  6
Continuous
 62
     7
370
    -3
100
AcDbLine
 10
13.06562034853803
 20
-13.38718704131443
 30
0.0
 11
13.06562034853803
 21
-13.29319239381529
 31
0.0
  0
LINE
  5
AF
330
1F
100
AcDbEntity
  8
0
  6
Continuous
 62
     7
370
    -3
100
AcDbLine
 10
13.06562034853816
 20
20.65281204571136
 30
0.0
 11
13.06562034853816
 21
20.7468066932105
 31
0.0
  0
ARC
  5
B0
330
1F
100
AcDbEntity
  8
0
  6
Continuous
 62
     7
370
    -3
100
AcDbCircle
 10
12.61262036734117
 20
-3.849190174051973
 30
0.0
 40
0.0940000000000021
100
AcDbArc
 50
90.0
 51
270.0000000000008
  0
LINE
  5
B1
330
1F
100
AcDbEntity
  8
0
  6
Continuous
 62
     7
370
    -3
100
AcDbLine
 10
12.73762041762126
 20
-3.943190112506176
 30
0.0
 11
12.61262035496598
 21
-3.943190112506176
 31
0.0
  0
ARC
  5
B2
330
1F
100
AcDbEntity
  8
0
  6
Continuous
 62
     7
370
    -3
100
AcDbCircle
 10
12.73762036734117
 20
-3.849190174051973
 30
0.0
 40
0.0940000000000021
100
AcDbArc
 50
269.9999999999986
 51
90.0
  0
LINE
  5
B3
330
1F
100
AcDbEntity
  8
0
  6
Continuous
 62
     7
370
    -3
100
AcDbLine
 10
12.61262035496598
 20
-3.755190257629876
 30
0.0
 11
12.73762041762126
 21
-3.755190257629876
 31
0.0
  0
ARC
  5
B4
330
1F
100
AcDbEntity
  8
0
  6
Continuous
 62
     7
370
    -3
100
AcDbCircle
 10
12.62262036734122
 20
11.23480982594802
 30
0.0
 40
0.0940000000000012
100
AcDbArc
 50
90.0
 51
270.0000000000008
  0
LINE
  5
B5
330
1F
100
AcDbEntity
  8
0
  6
Continuous
 62
     7
370
    -3
100
AcDbLine
 10
12.74762032876815
 20
11.14081008916966
 30
0.0
 11
12.62262041277785
 21
11.14081008916966
 31
0.0
  0
ARC
  5
B6
330
1F
100
AcDbEntity
  8
0
  6
Continuous
 62
     7
370
    -3
100
AcDbCircle
 10
12.74762036734122
 20
11.23480982594802
 30
0.0
 40
0.0940000000000012
100
AcDbArc
 50
270.0000000000008
 51
90.0
  0
LINE
  5
B7
330
1F
100
AcDbEntity
  8
0
  6
Continuous
 62
     7
370
    -3
100
AcDbLine
 10
12.62262041277785
 20
11.32880994404596
 30
0.0
 11
12.74762032876815
 21
11.32880994404596
 31
0.0
  0
ARC
  5
B8
330
1F
100
AcDbEntity
  8
0
  6
Continuous
 62
     7
370
    -3
100
AcDbCircle
 10
14.67162036734114
 20
-11.83019017405198
 30
0.0
 40
0.094000000000003
100
AcDbArc
 50
90.0
 51
270.0000000000008
  0
LINE
  5
B9
330
1F
100
AcDbEntity
  8
0
  6
Continuous
 62
     7
370
    -3
100
AcDbLine
 10
14.67162034922232
 20
-11.9241898619827
 30
0.0
 11
14.79662037521135
 21
-11.9241898619827
 31
0.0
  0
ARC
  5
BA
330
1F
100
AcDbEntity
  8
0
  6
Continuous
 62
     7
370
    -3
100
AcDbCircle
 10
14.79662036734114
 20
-11.83019017405198
 30
0.0
 40
0.094000000000003
100
AcDbArc
 50
270.0000000000008
 51
90.0
  0
LINE
  5
BB
330
1F
100
AcDbEntity
  8
0
  6
Continuous
 62
     7
370
    -3
100
AcDbLine
 10
14.79662037521135
 20
-11.7361900071064
 30
0.0
 11
14.67162034922232
 21
-11.73619000710639
 31
0.0
  0
ARC
  5
BC
330
1F
100
AcDbEntity
  8
0
  6
Continuous
 62
     7
370
    -3
100
AcDbCircle
 10
14.67162036734119
 20
3.669809825948018
 30
0.0
 40
0.0939999999999999
100
AcDbArc
 50
90.0
 51
270.0000000000008
  0
LINE
  5
BD
330
1F
100
AcDbEntity
  8
0
  6
Continuous
 62
     7
370
    -3
100
AcDbLine
 10
14.67162034922238
 20
3.575809822364946
 30
0.0
 11
14.79662037521141
 21
3.575809822364945
 31
0.0
  0
ARC
  5
BE
330
1F
100
AcDbEntity
  8
0
  6
Continuous
 62
     7
370
    -3
100
AcDbCircle
 10
14.7966203673412
 20
3.669809825948017
 30
0.0
 40
0.0939999999999999
100
AcDbArc
 50
270.0000000000008
 51
90.0
  0
LINE
  5
BF
330
1F
100
AcDbEntity
  8
0
  6
Continuous
 62
     7
370
    -3
100
AcDbLine
 10
14.79662037521141
 20
3.763809823906218
 30
0.0
 11
14.67162034922238
 21
3.763809823906219
 31
0.0
  0
ARC
  5
C0
330
1F
100
AcDbEntity
  8
0
  6
Continuous
 62
     7
370
    -3
100
AcDbCircle
 10
12.99862036734114
 20
-13.33019017405198
 30
0.0
 40
0.094000000000003
100
AcDbArc
 50
90.0
 51
270.0000000000008
  0
LINE
  5
C1
330
1F
100
AcDbEntity
  8
0
  6
Continuous
 62
     7
370
    -3
100
AcDbLine
 10
12.9986204158603
 20
-13.42419002718612
 30
0.0
 11
13.12362033185061
 21
-13.42419002718612
 31
0.0
  0
ARC
  5
C2
330
1F
100
AcDbEntity
  8
0
  6
Continuous
 62
     7
370
    -3
100
AcDbCircle
 10
13.12362036734114
 20
-13.33019017405198
 30
0.0
 40
0.094000000000003
100
AcDbArc
 50
269.9999999999997
 51
90.0
  0
LINE
  5
C3
330
1F
100
AcDbEntity
  8
0
  6
Continuous
 62
     7
370
    -3
100
AcDbLine
 10
13.12362033185061
 20
-13.23619017230982
 30
0.0
 11
12.9986204158603
 21
-13.23619017230982
 31
0.0
  0
ARC
  5
C4
330
1F
100
AcDbEntity
  8
0
  6
Continuous
 62
     7
370
    -3
100
AcDbCircle
 10
-1.521379632658859
 20
-13.33019017405192
 30
0.0
 40
0.094000000000003
100
AcDbArc
 50
90.00000000000136
 51
270.0000000000021
  0
LINE
  5
C5
330
1F
100
AcDbEntity
  8
0
  6
Continuous
 62
     7
370
    -3
100
AcDbLine
 10
-1.521379781191709
 20
-13.42419002718606
 30
0.0
 11
-1.39638015853135
 21
-13.42419002718606
 31
0.0
  0
ARC
  5
C6
330
1F
100
AcDbEntity
  8
0
  6
Continuous
 62
     7
370
    -3
100
AcDbCircle
 10
-1.396379632658857
 20
-13.33019017405192
 30
0.0
 40
0.094000000000003
100
AcDbArc
 50
270.0000000000008
 51
90.00000000000136
  0
LINE
  5
C7
330
1F
100
AcDbEntity
  8
0
  6
Continuous
 62
     7
370
    -3
100
AcDbLine
 10
-1.39638015853135
 20
-13.23619017230976
 30
0.0
 11
-1.521379781191709
 21
-13.23619017230976
 31
0.0
  0
ARC
  5
C8
330
1F
100
AcDbEntity
  8
0
  6
Continuous
 62
     7
370
    -3
100
AcDbCircle
 10
-3.076379632658855
 20
-11.83019017405192
 30
0.0
 40
0.0940000000000012
100
AcDbArc
 50
90.0
 51
270.0000000000008
  0
LINE
  5
C9
330
1F
100
AcDbEntity
  8
0
  6
Continuous
 62
     7
370
    -3
100
AcDbLine
 10
-3.076379311037774
 20
-11.92418986198263
 30
0.0
 11
-2.951379688377415
 21
-11.92418986198263
 31
0.0
  0
ARC
  5
CA
330
1F
100
AcDbEntity
  8
0
  6
Continuous
 62
     7
370
    -3
100
AcDbCircle
 10
-2.951379632658853
 20
-11.83019017405192
 30
0.0
 40
0.094000000000003
100
AcDbArc
 50
270.0000000000008
 51
90.0
  0
LINE
  5
CB
330
1F
100
AcDbEntity
  8
0
  6
Continuous
 62
     7
370
    -3
100
AcDbLine
 10
-2.951379688377415
 20
-11.73619000710633
 30
0.0
 11
-3.076379311037774
 21
-11.73619000710633
 31
0.0
  0
ARC
  5
CC
330
1F
100
AcDbEntity
  8
0
  6
Continuous
 62
     7
370
    -3
100
AcDbCircle
 10
-3.0763796326588
 20
3.669809825948079
 30
0.0
 40
0.0939999999999999
100
AcDbArc
 50
90.0
 51
270.0000000000008
  0
LINE
  5
CD
330
1F
100
AcDbEntity
  8
0
  6
Continuous
 62
     7
370
    -3
100
AcDbLine
 10
-3.076379311037718
 20
3.575809822365012
 30
0.0
 11
-2.951379688377358
 21
3.575809822365011
 31
0.0
  0
ARC
  5
CE
330
1F
100
AcDbEntity
  8
0
  6
Continuous
 62
     7
370
    -3
100
AcDbCircle
 10
-2.951379632658798
 20
3.669809825948078
 30
0.0
 40
0.0939999999999999
100
AcDbArc
 50
270.0000000000008
 51
90.0
  0
LINE
  5
CF
330
1F
100
AcDbEntity
  8
0
  6
Continuous
 62
     7
370
    -3
100
AcDbLine
 10
-2.951379688377358
 20
3.763809823906284
 30
0.0
 11
-3.076379311037718
 21
3.763809823906284
 31
0.0
  0
ARC
  5
D0
330
1F
100
AcDbEntity
  8
0
  6
Continuous
 62
     7
370
    -3
100
AcDbCircle
 10
-3.076379632658748
 20
19.16980982594807
 30
0.0
 40
0.0940000000000012
100
AcDbArc
 50
90.0
 51
270.0000000000008
  0
LINE
  5
D1
330
1F
100
AcDbEntity
  8
0
  6
Continuous
 62
     7
370
    -3
100
AcDbLine
 10
-3.076379311037661
 20
19.07580925004896
 30
0.0
 11
-2.951379688377302
 21
19.07580925004895
 31
0.0
  0
ARC
  5
D2
330
1F
100
AcDbEntity
  8
0
  6
Continuous
 62
     7
370
    -3
100
AcDbCircle
 10
-2.951379632658746
 20
19.16980982594807
 30
0.0
 40
0.0940000000000012
100
AcDbArc
 50
270.0000000000008
 51
90.0
  0
LINE
  5
D3
330
1F
100
AcDbEntity
  8
0
  6
Continuous
 62
     7
370
    -3
100
AcDbLine
 10
-2.951379688377302
 20
19.26381027824503
 30
0.0
 11
-3.076379311037661
 21
19.26381027824503
 31
0.0
  0
ARC
  5
D4
330
1F
100
AcDbEntity
  8
0
  6
Continuous
 62
     7
370
    -3
100
AcDbCircle
 10
14.67162036734125
 20
19.15980982594802
 30
0.0
 40
0.0940000000000012
100
AcDbArc
 50
90.0
 51
269.9999999999997
  0
LINE
  5
D5
330
1F
100
AcDbEntity
  8
0
  6
Continuous
 62
     7
370
    -3
100
AcDbLine
 10
14.67162034922243
 20
19.06581021889188
 30
0.0
 11
14.79662037521147
 21
19.06581021889188
 31
0.0
  0
ARC
  5
D6
330
1F
100
AcDbEntity
  8
0
  6
Continuous
 62
     7
370
    -3
100
AcDbCircle
 10
14.79662036734125
 20
19.15980982594801
 30
0.0
 40
0.0940000000000012
100
AcDbArc
 50
270.0000000000008
 51
90.0
  0
LINE
  5
D7
330
1F
100
AcDbEntity
  8
0
  6
Continuous
 62
     7
370
    -3
100
AcDbLine
 10
14.79662037521147
 20
19.25381007376818
 30
0.0
 11
14.67162034922243
 21
19.25381007376818
 31
0.0
  0
ARC
  5
D8
330
1F
100
AcDbEntity
  8
0
  6
Continuous
 62
     7
370
    -3
100
AcDbCircle
 10
-1.521379632658741
 20
20.66980982594807
 30
0.0
 40
0.0940000000000012
100
AcDbArc
 50
90.0
 51
270.0000000000021
  0
LINE
  5
D9
330
1F
100
AcDbEntity
  8
0
  6
Continuous
 62
     7
370
    -3
100
AcDbLine
 10
-1.521379781191583
 20
20.57580941525237
 30
0.0
 11
-1.396380158531224
 21
20.57580941525237
 31
0.0
  0
ARC
  5
DA
330
1F
100
AcDbEntity
  8
0
  6
Continuous
 62
     7
370
    -3
100
AcDbCircle
 10
-1.396379632658739
 20
20.66980982594807
 30
0.0
 40
0.0940000000000012
100
AcDbArc
 50
270.0000000000008
 51
90.0
  0
LINE
  5
DB
330
1F
100
AcDbEntity
  8
0
  6
Continuous
 62
     7
370
    -3
100
AcDbLine
 10
-1.396380158531224
 20
20.76380927012868
 30
0.0
 11
-1.521379781191583
 21
20.76380927012868
 31
0.0
  0
ARC
  5
DC
330
1F
100
AcDbEntity
  8
0
  6
Continuous
 62
     7
370
    -3
100
AcDbCircle
 10
12.99862036734125
 20
20.66980982594802
 30
0.0
 40
0.0940000000000012
100
AcDbArc
 50
90.0
 51
270.0000000000008
  0
LINE
  5
DD
330
1F
100
AcDbEntity
  8
0
  6
Continuous
 62
     7
370
    -3
100
AcDbLine
 10
12.99862041586043
 20
20.57580941525232
 30
0.0
 11
13.12362033185073
 21
20.57580941525232
 31
0.0
  0
ARC
  5
DE
330
1F
100
AcDbEntity
  8
0
  6
Continuous
 62
     7
370
    -3
100
AcDbCircle
 10
13.12362036734125
 20
20.66980982594802
 30
0.0
 40
0.0940000000000012
100
AcDbArc
 50
270.0000000000008
 51
90.0
  0
LINE
  5
DF
330
1F
100
AcDbEntity
  8
0
  6
Continuous
 62
     7
370
    -3
100
AcDbLine
 10
13.12362033185073
 20
20.76380927012862
 30
0.0
 11
12.99862041586043
 21
20.76380927012862
 31
0.0
  0
LINE
  5
E0
330
1F
100
AcDbEntity
  8
0
  6
Continuous
 62
     7
370
    -3
100
AcDbLine
 10
-3.467943107659391
 20
-13.78918986401013
 30
0.0
 11
15.00018335905105
 21
-13.7891898640102
 31
0.0
  0
LINE
  5
E1
330
1F
100
AcDbEntity
  8
0
  6
Continuous
 62
     7
370
    -3
100
AcDbLine
 10
-3.597880059949961
 20
-13.65925291171955
 30
0.0
 11
-3.467943107659391
 21
-13.78918986401013
 31
0.0
  0
LINE
  5
E2
330
1F
100
AcDbEntity
  8
0
  6
Continuous
 62
     7
370
    -3
100
AcDbLine
 10
-3.597880059949834
 20
20.99887332798196
 30
0.0
 11
-3.597880059949961
 21
-13.65925291171955
 31
0.0
  0
LINE
  5
E3
330
1F
100
AcDbEntity
  8
0
  6
Continuous
 62
     7
370
    -3
100
AcDbLine
 10
-3.467943107659262
 20
21.12881028027253
 30
0.0
 11
-3.597880059949834
 21
20.99887332798196
 31
0.0
  0
LINE
  5
E4
330
1F
100
AcDbEntity
  8
0
  6
Continuous
 62
     7
370
    -3
100
AcDbLine
 10
15.00018335905118
 20
21.12881028027246
 30
0.0
 11
-3.467943107659262
 21
21.12881028027253
 31
0.0
  0
LINE
  5
E5
330
1F
100
AcDbEntity
  8
0
  6
Continuous
 62
     7
370
    -3
100
AcDbLine
 10
15.1301203709244
 20
20.99887332798189
 30
0.0
 11
15.00018335905118
 21
21.12881028027246
 31
0.0
  0
LINE
  5
E6
330
1F
100
AcDbEntity
  8
0
  6
Continuous
 62
     7
370
    -3
100
AcDbLine
 10
15.13012037092427
 20
-13.65925291171962
 30
0.0
 11
15.1301203709244
 21
20.99887332798189
 31
0.0
  0
LINE
  5
E7
330
1F
100
AcDbEntity
  8
0
  6
Continuous
 62
     7
370
    -3
100
AcDbLine
 10
15.00018335905105
 20
-13.7891898640102
 30
0.0
 11
15.13012037092427
 21
-13.65925291171962
 31
0.0
  0
SPLINE
  5
E8
330
1F
100
AcDbEntity
  8
0
  6
Continuous
 62
     7
370
    -3
100
AcDbSpline
210
0.0
220
0.0
230
1.0
 70
     8
 71
     3
 72
    11
 73
     7
 74
     0
 42
0.0000000001
 43
0.0000000001
 40
0.0
 40
0.0
 40
0.0
 40
0.0
 40
0.249994223819471
 40
0.4999914207855749
 40
0.7500025093343738
 40
1.0
 40
1.0
 40
1.0
 40
1.0
 10
15.00018335905118
 20
21.12881028027246
 30
0.0
 10
14.99851144617444
 20
21.13418271089942
 30
0.0
 10
14.99516760053715
 20
21.14492763604689
 30
0.0
 10
14.99015167741866
 20
21.15847931234394
 30
0.0
 10
14.98513629765047
 20
21.16796048179457
 30
0.0
 10
14.98179231250588
 20
21.16919323398092
 30
0.0
 10
14.98012036540393
 20
21.16980959331157
 30
0.0
  0
LINE
  5
E9
330
1F
100
AcDbEntity
  8
0
  6
Continuous
 62
     7
370
    -3
100
AcDbLine
 10
-3.447879339437622
 20
21.16980959331163
 30
0.0
 11
14.98012036540393
 21
21.16980959331157
 31
0.0
  0
SPLINE
  5
EA
330
1F
100
AcDbEntity
  8
0
  6
Continuous
 62
     7
370
    -3
100
AcDbSpline
210
0.0
220
0.0
230
1.0
 70
     8
 71
     3
 72
    11
 73
     7
 74
     0
 42
0.0000000001
 43
0.0000000001
 40
0.0
 40
0.0
 40
0.0
 40
0.0
 40
0.2499974855709974
 40
0.5000085689314676
 40
0.7500057710287455
 40
1.0
 40
1.0
 40
1.0
 40
1.0
 10
-3.447879339437622
 20
21.16980959331163
 30
0.0
 10
-3.449551350756148
 20
21.16919323399497
 30
0.0
 10
-3.452895464336743
 20
21.16796048183681
 30
0.0
 10
-3.457911035914182
 20
21.1584793120498
 30
0.0
 10
-3.46292715450449
 20
21.14492763607318
 30
0.0
 10
-3.466271129902492
 20
21.13418271090837
 30
0.0
 10
-3.467943107659262
 20
21.12881028027253
 30
0.0
  0
SPLINE
  5
EB
330
1F
100
AcDbEntity
  8
0
  6
Continuous
 62
     7
370
    -3
100
AcDbSpline
210
0.0
220
0.0
230
1.0
 70
     8
 71
     3
 72
    11
 73
     7
 74
     0
 42
0.0000000001
 43
0.0000000001
 40
0.0
 40
0.0
 40
0.0
 40
0.0
 40
0.2499933971434194
 40
0.5000003919473563
 40
0.7499934953960623
 40
0.9999999999999998
 40
0.9999999999999998
 40
0.9999999999999998
 40
0.9999999999999998
 10
14.9801203654038
 20
-13.83019035036908
 30
0.0
 10
14.98179231446112
 20
-13.82957399157189
 30
0.0
 10
14.98513630351657
 20
-13.82834124045249
 30
0.0
 10
14.9901516539527
 20
-13.81886006299955
 30
0.0
 10
14.99516779804102
 20
-13.80530812124191
 30
0.0
 10
14.99851147550826
 20
-13.79456271242143
 30
0.0
 10
15.00018335905105
 20
-13.7891898640102
 30
0.0
  0
LINE
  5
EC
330
1F
100
AcDbEntity
  8
0
  6
Continuous
 62
     7
370
    -3
100
AcDbLine
 10
14.9801203654038
 20
-13.83019035036908
 30
0.0
 11
-3.447879339437753
 21
-13.83019035036901
 31
0.0
  0
SPLINE
  5
ED
330
1F
100
AcDbEntity
  8
0
  6
Continuous
 62
     7
370
    -3
100
AcDbSpline
210
0.0
220
0.0
230
1.0
 70
     8
 71
     3
 72
    11
 73
     7
 74
     0
 42
0.0000000001
 43
0.0000000001
 40
0.0
 40
0.0
 40
0.0
 40
0.0
 40
0.2500065096705116
 40
0.4999996182786822
 40
0.7500066079227514
 40
1.0
 40
1.0
 40
1.0
 40
1.0
 10
-3.467943107659391
 20
-13.78918986401013
 30
0.0
 10
-3.466271159237499
 20
-13.7945627124308
 30
0.0
 10
-3.462927352014923
 20
-13.80530812127214
 30
0.0
 10
-3.457911012447737
 20
-13.81886006270474
 30
0.0
 10
-3.452895470203282
 20
-13.82834124049473
 30
0.0
 10
-3.449551352711714
 20
-13.82957399158585
 30
0.0
 10
-3.447879339437756
 20
-13.83019035036901
 30
0.0
  0
LINE
  5
EE
330
1F
100
AcDbEntity
  8
0
  6
Continuous
 62
     7
370
    -3
100
AcDbLine
 10
-3.597880059949834
 20
20.99887332798196
 30
0.0
 11
-3.638879372988938
 21
20.99887332798196
 31
0.0
  0
LINE
  5
EF
330
1F
100
AcDbEntity
  8
0
  6
Continuous
 62
     7
370
    -3
100
AcDbLine
 10
-3.638879372989065
 20
-13.65925291171955
 30
0.0
 11
-3.597880059949961
 21
-13.65925291171955
 31
0.0
  0
LINE
  5
F0
330
1F
100
AcDbEntity
  8
0
  6
Continuous
 62
     7
370
    -3
100
AcDbLine
 10
-3.638879372989065
 20
-13.65925291171955
 30
0.0
 11
-3.638879372988938
 21
20.99887332798196
 31
0.0
  0
LINE
  5
F1
330
1F
100
AcDbEntity
  8
0
  6
Continuous
 62
     7
370
    -3
100
AcDbLine
 10
15.13012037092427
 20
-13.65925291171962
 30
0.0
 11
15.17112037145543
 21
-13.65925291171962
 31
0.0
  0
LINE
  5
F2
330
1F
100
AcDbEntity
  8
0
  6
Continuous
 62
     7
370
    -3
100
AcDbLine
 10
15.17112037145555
 20
20.99887332798189
 30
0.0
 11
15.1301203709244
 21
20.99887332798189
 31
0.0
  0
LINE
  5
F3
330
1F
100
AcDbEntity
  8
0
  6
Continuous
 62
     7
370
    -3
100
AcDbLine
 10
15.17112037145555
 20
20.99887332798189
 30
0.0
 11
15.17112037145543
 21
-13.65925291171962
 31
0.0
  0
SPLINE
  5
F4
330
1F
100
AcDbEntity
  8
0
  6
Continuous
 62
     7
370
    -3
100
AcDbSpline
210
0.0
220
0.0
230
1.0
 70
     8
 71
     3
 72
    11
 73
     7
 74
     0
 42
0.0000000001
 43
0.0000000001
 40
0.0
 40
0.0
 40
0.0
 40
0.0
 40
0.2499962529491492
 40
0.5000020758580773
 40
0.750004350716246
 40
1.0
 40
1.0
 40
1.0
 40
1.0
 10
15.06012036727875
 20
21.09362124677918
 30
0.0
 10
15.06614812619542
 20
21.09585517398065
 30
0.0
 10
15.07820387477385
 20
21.10032311389925
 30
0.0
 10
15.09340838061708
 20
21.10702636072395
 30
0.0
 10
15.10404594281387
 20
21.11372979906653
 30
0.0
 10
15.10542890138509
 20
21.11819768857736
 30
0.0
 10
15.10612037150777
 20
21.12043160373032
 30
0.0
  0
LINE
  5
F5
330
1F
100
AcDbEntity
  8
0
  6
Continuous
 62
     7
370
    -3
100
AcDbLine
 10
15.10612037150777
 20
21.12043160373032
 30
0.0
 11
15.10612037150777
 21
21.02287241074244
 31
0.0
  0
LINE
  5
F6
330
1F
100
AcDbEntity
  8
0
  6
Continuous
 62
     7
370
    -3
100
AcDbLine
 10
15.10612037150764
 20
-13.68325316779995
 30
0.0
 11
15.10612037150764
 21
-13.76081195183426
 31
0.0
  0
SPLINE
  5
F7
330
1F
100
AcDbEntity
  8
0
  6
Continuous
 62
     7
370
    -3
100
AcDbSpline
210
0.0
220
0.0
230
1.0
 70
     8
 71
     3
 72
    11
 73
     7
 74
     0
 42
0.0000000001
 43
0.0000000001
 40
0.0
 40
0.0
 40
0.0
 40
0.0
 40
0.2499962529491492
 40
0.5000020758580773
 40
0.750004350716246
 40
1.0
 40
1.0
 40
1.0
 40
1.0
 10
15.06012036727861
 20
-13.73400159488312
 30
0.0
 10
15.06614812619528
 20
-13.73623552208459
 30
0.0
 10
15.07820387477372
 20
-13.7407034620032
 30
0.0
 10
15.09340838061695
 20
-13.7474067088279
 30
0.0
 10
15.10404594281374
 20
-13.75411014717047
 30
0.0
 10
15.10542890138497
 20
-13.75857803668131
 30
0.0
 10
15.10612037150764
 20
-13.76081195183426
 30
0.0
  0
LINE
  5
F8
330
1F
100
AcDbEntity
  8
0
  6
Continuous
 62
     7
370
    -3
100
AcDbLine
 10
15.05774636324498
 20
-13.73162679565034
 30
0.0
 11
15.06012036727861
 21
-13.73400159488312
 31
0.0
  0
CIRCLE
  5
F9
330
1F
100
AcDbEntity
  8
0
  6
Continuous
 62
     7
370
    -3
100
AcDbCircle
 10
14.73112036734125
 20
3.679809825947988
 30
0.0
 40
0.0470000000000011
  0
CIRCLE
  5
FA
330
1F
100
AcDbEntity
  8
0
  6
Continuous
 62
     7
370
    -3
100
AcDbCircle
 10
14.73112036734131
 20
19.17980982594796
 30
0.0
 40
0.0470000000000006
  0
CIRCLE
  5
FB
330
1F
100
AcDbEntity
  8
0
  6
Continuous
 62
     7
370
    -3
100
AcDbCircle
 10
14.73112036734119
 20
-11.82019017405203
 30
0.0
 40
0.0470000000000024
  0
LINE
  5
FC
330
1F
100
AcDbEntity
  8
0
  6
Continuous
 62
     7
370
    -3
100
AcDbLine
 10
15.0477463627243
 20
21.08124624306961
 30
0.0
 11
15.06012036727875
 21
21.09362124677918
 31
0.0
  0
SPLINE
  5
FD
330
1F
100
AcDbEntity
  8
0
  6
Continuous
 62
     7
370
    -3
100
AcDbSpline
210
0.0
220
0.0
230
1.0
 70
     8
 71
     3
 72
     9
 73
     5
 74
     0
 42
0.0000000001
 43
0.0000000001
 40
0.0
 40
0.0
 40
0.0
 40
0.0
 40
0.5000001609423445
 40
0.9999999999999998
 40
0.9999999999999998
 40
0.9999999999999998
 40
0.9999999999999998
 10
15.06012036727875
 20
21.09362124677918
 30
0.0
 10
15.0617416879833
 20
21.09808963888522
 30
0.0
 10
15.06498432834866
 20
21.10702642022067
 30
0.0
 10
15.06574168914717
 20
21.11596321018597
 30
0.0
 10
15.06612036942454
 20
21.12043160373032
 30
0.0
  0
SPLINE
  5
FE
330
1F
100
AcDbEntity
  8
0
  6
Continuous
 62
     7
370
    -3
100
AcDbSpline
210
0.0
220
0.0
230
1.0
 70
    24
 71
     1
 72
     4
 73
     2
 74
     0
 42
0.0000000001
 43
0.0000000001
 40
0.0
 40
0.0
 40
1.0
 40
1.0
 10
15.10612037150777
 20
21.12043160373032
 30
0.0
 10
15.06612036942454
 20
21.12043160373032
 30
0.0
  0
SPLINE
  5
FF
330
1F
100
AcDbEntity
  8
0
  6
Continuous
 62
     7
370
    -3
100
AcDbSpline
210
0.0
220
0.0
230
1.0
 70
    24
 71
     1
 72
     4
 73
     2
 74
     0
 42
0.0000000001
 43
0.0000000001
 40
0.0
 40
0.0
 40
1.0
 40
1.0
 10
15.10612037150764
 20
-13.76081195183426
 30
0.0
 10
15.06612036942441
 20
-13.76081195183426
 30
0.0
  0
SPLINE
  5
100
330
1F
100
AcDbEntity
  8
0
  6
Continuous
 62
     7
370
    -3
100
AcDbSpline
210
0.0
220
0.0
230
1.0
 70
     8
 71
     3
 72
     9
 73
     5
 74
     0
 42
0.0000000001
 43
0.0000000001
 40
0.0
 40
0.0
 40
0.0
 40
0.0
 40
0.5000001609423445
 40
0.9999999999999998
 40
0.9999999999999998
 40
0.9999999999999998
 40
0.9999999999999998
 10
15.06012036727861
 20
-13.73400159488312
 30
0.0
 10
15.06174168798317
 20
-13.73846998698916
 30
0.0
 10
15.06498432834853
 20
-13.74740676832461
 30
0.0
 10
15.06574168914704
 20
-13.75634355828991
 30
0.0
 10
15.06612036942441
 20
-13.76081195183426
 30
0.0
  0
SPLINE
  5
101
330
1F
100
AcDbEntity
  8
0
  6
Continuous
 62
     7
370
    -3
100
AcDbSpline
210
0.0
220
0.0
230
1.0
 70
    24
 71
     1
 72
     4
 73
     2
 74
     0
 42
0.0000000001
 43
0.0000000001
 40
0.0
 40
0.0
 40
1.0
 40
1.0
 10
15.06612036942454
 20
21.13380979585097
 30
0.0
 10
15.10612037150777
 20
21.13380979585097
 30
0.0
  0
LINE
  5
102
330
1F
100
AcDbEntity
  8
0
  6
Continuous
 62
     7
370
    -3
100
AcDbLine
 10
15.06612036942454
 20
21.12043160373032
 30
0.0
 11
15.06612036942454
 21
21.13380979585097
 31
0.0
  0
LINE
  5
103
330
1F
100
AcDbEntity
  8
0
  6
Continuous
 62
     7
370
    -3
100
AcDbLine
 10
15.10612037150777
 20
21.12043160373032
 30
0.0
 11
15.10612037150777
 21
21.13380979585097
 31
0.0
  0
SPLINE
  5
104
330
1F
100
AcDbEntity
  8
0
  6
Continuous
 62
     7
370
    -3
100
AcDbSpline
210
0.0
220
0.0
230
1.0
 70
    24
 71
     1
 72
     4
 73
     2
 74
     0
 42
0.0000000001
 43
0.0000000001
 40
0.0
 40
0.0
 40
1.0
 40
1.0
 10
15.06612036942441
 20
-13.77419014395491
 30
0.0
 10
15.10612037150764
 20
-13.77419014395491
 30
0.0
  0
LINE
  5
105
330
1F
100
AcDbEntity
  8
0
  6
Continuous
 62
     7
370
    -3
100
AcDbLine
 10
15.06612036942441
 20
-13.76081195183426
 30
0.0
 11
15.06612036942441
 21
-13.77419014395491
 31
0.0
  0
LINE
  5
106
330
1F
100
AcDbEntity
  8
0
  6
Continuous
 62
     7
370
    -3
100
AcDbLine
 10
15.10612037150764
 20
-13.76081195183426
 30
0.0
 11
15.10612037150764
 21
-13.77419014395491
 31
0.0
  0
SPLINE
  5
107
330
1F
100
AcDbEntity
  8
0
  6
Continuous
 62
     7
370
    -3
100
AcDbSpline
210
0.0
220
0.0
230
1.0
 70
     8
 71
     3
 72
    11
 73
     7
 74
     0
 42
0.0000000001
 43
0.0000000001
 40
0.0
 40
0.0
 40
0.0
 40
0.0
 40
0.2499956492837541
 40
0.499997924141923
 40
0.750003747050851
 40
1.0
 40
1.0
 40
1.0
 40
1.0
 10
15.10612037150777
 20
21.13380979585097
 30
0.0
 10
15.10542890138509
 20
21.13983749964107
 30
0.0
 10
15.10404594281387
 20
21.15189306697206
 30
0.0
 10
15.09340838061708
 20
21.16709771240886
 30
0.0
 10
15.07820387477385
 20
21.17773591045536
 30
0.0
 10
15.06614812619542
 20
21.17911851083161
 30
0.0
 10
15.06012036727875
 20
21.17980979778835
 30
0.0
  0
SPLINE
  5
108
330
1F
100
AcDbEntity
  8
0
  6
Continuous
 62
     7
370
    -3
100
AcDbSpline
210
0.0
220
0.0
230
1.0
 70
     8
 71
     3
 72
     9
 73
     5
 74
     0
 42
0.0000000001
 43
0.0000000001
 40
0.0
 40
0.0
 40
0.0
 40
0.0
 40
0.4999998390576554
 40
0.9999999999999998
 40
0.9999999999999998
 40
0.9999999999999998
 40
0.9999999999999998
 10
15.06612036942454
 20
21.13380979585097
 30
0.0
 10
15.06574168914717
 20
21.13543112825994
 30
0.0
 10
15.06498432834866
 20
21.13867379412165
 30
0.0
 10
15.0617416879833
 20
21.13943136675993
 30
0.0
 10
15.06012036727875
 20
21.13981015320099
 30
0.0
  0
SPLINE
  5
109
330
1F
100
AcDbEntity
  8
0
  6
Continuous
 62
     7
370
    -3
100
AcDbSpline
210
0.0
220
0.0
230
1.0
 70
    24
 71
     1
 72
     4
 73
     2
 74
     0
 42
0.0000000001
 43
0.0000000001
 40
0.0
 40
0.0
 40
1.0
 40
1.0
 10
15.06012036727875
 20
21.13981015320099
 30
0.0
 10
15.06012036727875
 20
21.17980979778835
 30
0.0
  0
SPLINE
  5
10A
330
1F
100
AcDbEntity
  8
0
  6
Continuous
 62
     7
370
    -3
100
AcDbSpline
210
0.0
220
0.0
230
1.0
 70
    24
 71
     1
 72
     4
 73
     2
 74
     0
 42
0.0000000001
 43
0.0000000001
 40
0.0
 40
0.0
 40
1.0
 40
1.0
 10
15.06012036727861
 20
-13.78019050130493
 30
0.0
 10
15.06012036727861
 20
-13.82019014589229
 30
0.0
  0
SPLINE
  5
10B
330
1F
100
AcDbEntity
  8
0
  6
Continuous
 62
     7
370
    -3
100
AcDbSpline
210
0.0
220
0.0
230
1.0
 70
     8
 71
     3
 72
     9
 73
     5
 74
     0
 42
0.0000000001
 43
0.0000000001
 40
0.0
 40
0.0
 40
0.0
 40
0.0
 40
0.4999998390576554
 40
0.9999999999999998
 40
0.9999999999999998
 40
0.9999999999999998
 40
0.9999999999999998
 10
15.06612036942441
 20
-13.77419014395491
 30
0.0
 10
15.06574168914704
 20
-13.77581147636388
 30
0.0
 10
15.06498432834853
 20
-13.77905414222559
 30
0.0
 10
15.06174168798317
 20
-13.77981171486387
 30
0.0
 10
15.06012036727861
 20
-13.78019050130493
 30
0.0
  0
SPLINE
  5
10C
330
1F
100
AcDbEntity
  8
0
  6
Continuous
 62
     7
370
    -3
100
AcDbSpline
210
0.0
220
0.0
230
1.0
 70
     8
 71
     3
 72
    11
 73
     7
 74
     0
 42
0.0000000001
 43
0.0000000001
 40
0.0
 40
0.0
 40
0.0
 40
0.0
 40
0.2499956492837541
 40
0.499997924141923
 40
0.750003747050851
 40
1.0
 40
1.0
 40
1.0
 40
1.0
 10
15.10612037150764
 20
-13.77419014395491
 30
0.0
 10
15.10542890138497
 20
-13.78021784774502
 30
0.0
 10
15.10404594281374
 20
-13.79227341507601
 30
0.0
 10
15.09340838061695
 20
-13.80747806051281
 30
0.0
 10
15.07820387477372
 20
-13.8181162585593
 30
0.0
 10
15.06614812619528
 20
-13.81949885893555
 30
0.0
 10
15.06012036727861
 20
-13.82019014589229
 30
0.0
  0
LINE
  5
10D
330
1F
100
AcDbEntity
  8
0
  6
Continuous
 62
     7
370
    -3
100
AcDbLine
 10
14.35612038057167
 20
21.17980979778836
 30
0.0
 11
14.35612038057167
 21
21.16980959331157
 31
0.0
  0
LINE
  5
10E
330
1F
100
AcDbEntity
  8
0
  6
Continuous
 62
     7
370
    -3
100
AcDbLine
 10
15.06012036727875
 20
21.17980979778835
 30
0.0
 11
14.35612038057167
 21
21.17980979778836
 31
0.0
  0
LINE
  5
10F
330
1F
100
AcDbEntity
  8
0
  6
Continuous
 62
     7
370
    -3
100
AcDbLine
 10
15.06012036727875
 20
21.13981015320099
 30
0.0
 11
14.99666690592355
 21
21.13981015320099
 31
0.0
  0
LINE
  5
110
330
1F
100
AcDbEntity
  8
0
  6
Continuous
 62
     7
370
    -3
100
AcDbLine
 10
15.06012036727861
 20
-13.78019050130493
 30
0.0
 11
15.0091833599781
 21
-13.78019050130493
 31
0.0
  0
LINE
  5
111
330
1F
100
AcDbEntity
  8
0
  6
Continuous
 62
     7
370
    -3
100
AcDbLine
 10
15.06012036727861
 20
-13.82019014589229
 30
0.0
 11
14.9890183001141
 21
-13.82019014589229
 31
0.0
  0
LINE
  5
112
330
1F
100
AcDbEntity
  8
0
  6
Continuous
 62
     7
370
    -3
100
AcDbLine
 10
15.06012036727861
 20
-13.7751898124066
 30
0.0
 11
15.01418335909269
 21
-13.7751898124066
 31
0.0
  0
LINE
  5
113
330
1F
100
AcDbEntity
  8
0
  6
Continuous
 62
     7
370
    -3
100
AcDbLine
 10
14.99826529287551
 20
21.13480946430277
 30
0.0
 11
15.06012036727875
 21
21.13480946430277
 31
0.0
  0
CIRCLE
  5
114
330
1F
100
AcDbEntity
  8
0
  6
Continuous
 62
     7
370
    -3
100
AcDbCircle
 10
13.06612036734131
 20
20.69980982594797
 30
0.0
 40
0.0470000000000006
  0
CIRCLE
  5
115
330
1F
100
AcDbEntity
  8
0
  6
Continuous
 62
     7
370
    -3
100
AcDbCircle
 10
-1.433879632658686
 20
20.69980982594809
 30
0.0
 40
0.0469999999999971
  0
CIRCLE
  5
116
330
1F
100
AcDbEntity
  8
0
  6
Continuous
 62
     7
370
    -3
100
AcDbCircle
 10
13.06612036734118
 20
-13.34019017405214
 30
0.0
 40
0.0469999999999988
  0
CIRCLE
  5
117
330
1F
100
AcDbEntity
  8
0
  6
Continuous
 62
     7
370
    -3
100
AcDbCircle
 10
-1.433879632658817
 20
-13.34019017405191
 30
0.0
 40
0.0469999999999988
  0
LINE
  5
118
330
1F
100
AcDbEntity
  8
0
  6
Continuous
 62
     7
370
    -3
100
AcDbLine
 10
15.02612036734131
 20
21.11980974424742
 30
0.0
 11
15.00918335997823
 21
21.11980974424742
 31
0.0
  0
LINE
  5
119
330
1F
100
AcDbEntity
  8
0
  6
Continuous
 62
     7
370
    -3
100
AcDbLine
 10
15.02612036734131
 20
21.10287287323694
 30
0.0
 11
15.02612036734131
 21
21.11980974424742
 31
0.0
  0
SPLINE
  5
11A
330
1F
100
AcDbEntity
  8
0
  6
Continuous
 62
     7
370
    -3
100
AcDbSpline
210
0.0
220
0.0
230
1.0
 70
     8
 71
     3
 72
    10
 73
     6
 74
     0
 42
0.0000000001
 43
0.0000000001
 40
0.0
 40
0.0
 40
0.0
 40
0.0
 40
0.3589809150372885
 40
0.7414401740974532
 40
1.0
 40
1.0
 40
1.0
 40
1.0
 10
15.02612036812666
 20
21.11979801104963
 30
0.0
 10
15.03110178718009
 20
21.11911101600556
 30
0.0
 10
15.04139042386108
 20
21.11769209454275
 30
0.0
 10
15.05380422365063
 20
21.10974687514603
 30
0.0
 10
15.05830496122916
 20
21.10195243788799
 30
0.0
 10
15.06012036727875
 20
21.09880849352233
 30
0.0
  0
LINE
  5
11B
330
1F
100
AcDbEntity
  8
0
  6
Continuous
 62
     7
370
    -3
100
AcDbLine
 10
14.00762035314039
 20
21.16980959331159
 30
0.0
 11
14.00762035314042
 21
29.10402556323832
 31
0.0
  0
LINE
  5
11C
330
1F
100
AcDbEntity
  8
0
  6
Continuous
 62
     7
370
    -3
100
AcDbLine
 10
-2.03537949675631
 20
29.10402556323838
 30
0.0
 11
-2.035379496756338
 21
21.16980959331165
 31
0.0
  0
LINE
  5
11D
330
1F
100
AcDbEntity
  8
0
  6
Continuous
 62
     7
370
    -3
100
AcDbLine
 10
-2.03537949675647
 20
-13.830190350369
 30
0.0
 11
-2.035379496756498
 21
-21.74440591134216
 31
0.0
  0
LINE
  5
11E
330
1F
100
AcDbEntity
  8
0
  6
Continuous
 62
     7
370
    -3
100
AcDbLine
 10
14.00762035314023
 20
-21.74440591134222
 30
0.0
 11
14.00762035314026
 21
-13.83019035036905
 31
0.0
  0
LINE
  5
11F
330
1F
100
AcDbEntity
  8
0
  6
Continuous
 62
     7
370
    -3
100
AcDbLine
 10
15.06012036727861
 20
-13.73400159488312
 30
0.0
 11
15.06012036727861
 21
-13.72925316973733
 31
0.0
  0
LINE
  5
120
330
1F
100
AcDbEntity
  8
0
  6
Continuous
 62
     7
370
    -3
100
AcDbLine
 10
15.06012036727875
 20
21.06887241267983
 30
0.0
 11
15.06012036727875
 21
21.09362124677918
 31
0.0
  0
LINE
  5
121
330
1F
100
AcDbEntity
  8
0
  6
Continuous
 62
     7
370
    -3
100
AcDbLine
 10
15.06012036727875
 20
21.13480946430277
 30
0.0
 11
15.06012036727875
 21
21.09880849352239
 31
0.0
  0
LINE
  5
122
330
1F
100
AcDbEntity
  8
0
  6
Continuous
 62
     7
370
    -3
100
AcDbLine
 10
15.06012036727861
 20
-13.73918884162621
 30
0.0
 11
15.06012036727861
 21
-13.7751898124066
 31
0.0
  0
LINE
  5
139
330
1F
100
AcDbEntity
  8
0
370
    18
100
AcDbLine
 10
-15.4182823395709
 20
-1.71425762513811
 30
0.0
 11
-9.182329959606533
 21
3.661610415546846
 31
0.0
  0
LINE
  5
13A
330
1F
100
AcDbEntity
  8
0
370
    18
100
AcDbLine
 10
-15.4182823395709
 20
9.037478456231809
 30
0.0
 11
-9.182329959606533
 21
3.661610415546846
 31
0.0
  0
LINE
  5
13B
330
1F
100
AcDbEntity
  8
0
370
    18
100
AcDbLine
 10
-15.4182823395709
 20
5.831650471834649
 30
0.0
 11
-15.4182823395709
 21
9.037478456231809
 31
0.0
  0
MTEXT
  5
13C
330
1F
100
AcDbEntity
  8
0
  6
Continuous
 62
     0
370
    18
100
AcDbMText
 10
-23.35041805772704
 20
5.031742552077247
 30
0.0
 40
2.381249999999999
 41
0.0
 71
     1
 72
     1
  1
{\fVerdana|b0|i0|c0|p34;AIRFLOW}
  7
SLDTEXTSTYLE0
 73
     1
 44
1.0
  0
LINE
  5
13D
330
1F
100
AcDbEntity
  8
0
370
    18
100
AcDbLine
 10
-24.31109319936905
 20
1.49157035925905
 30
0.0
 11
-15.4182823395709
 21
1.49157035925905
 31
0.0
  0
LINE
  5
13E
330
1F
100
AcDbEntity
  8
0
370
    18
100
AcDbLine
 10
-24.31109319936905
 20
5.831650471834649
 30
0.0
 11
-15.4182823395709
 21
5.831650471834649
 31
0.0
  0
LINE
  5
13F
330
1F
100
AcDbEntity
  8
0
370
    18
100
AcDbLine
 10
-24.31109319936905
 20
1.49157035925905
 30
0.0
 11
-24.31109319936905
 21
5.831650471834649
 31
0.0
  0
LINE
  5
140
330
1F
100
AcDbEntity
  8
0
370
    18
100
AcDbLine
 10
-15.4182823395709
 20
1.49157035925905
 30
0.0
 11
-15.4182823395709
 21
-1.71425762513811
 31
0.0
  0
MTEXT
  5
146
330
1F
100
AcDbEntity
  8
0
  6
Continuous
 62
     0
370
    18
100
AcDbMText
 10
0.1817128093624376
 20
11.998726717059
 30
0.0
 40
2.381249999999999
 41
0.0
 71
     1
 72
     1
  1
{\fVerdana|b0|i0|c0|p34;STD PFC\PSZ 16}
  7
SLDTEXTSTYLE0
 73
     1
 44
1.0
  0
ENDSEC
  0
SECTION
  2
OBJECTS
  0
DICTIONARY
  5
C
330
0
100
AcDbDictionary
281
     1
  3
ACAD_GROUP
350
D
  3
ACAD_PLOTSTYLENAME
350
E
  3
ACAD_MLINESTYLE
350
17
  3
ACAD_PLOTSETTINGS
350
19
  3
ACAD_LAYOUT
350
1A
  3
ACAD_VISUALSTYLE
350
2A
  3
ACAD_SCALELIST
350
3B
  3
AcDbVariableDictionary
350
124
  3
ACAD_TABLESTYLE
350
126
  3
ACAD_MLEADERSTYLE
350
127
  0
DICTIONARY
  5
D
102
{ACAD_REACTORS
330
C
102
}
330
C
100
AcDbDictionary
281
     1
  0
ACDBDICTIONARYWDFLT
  5
E
102
{ACAD_REACTORS
330
C
102
}
330
C
100
AcDbDictionary
281
     1
  3
Normal
350
F
100
AcDbDictionaryWithDefault
340
F
  0
DICTIONARY
  5
17
102
{ACAD_REACTORS
330
C
102
}
330
C
100
AcDbDictionary
281
     1
  3
Standard
350
18
  0
DICTIONARY
  5
19
102
{ACAD_REACTORS
330
C
102
}
330
C
100
AcDbDictionary
281
     1
  0
DICTIONARY
  5
1A
102
{ACAD_REACTORS
330
C
102
}
330
C
100
AcDbDictionary
281
     1
  3
Layout1
350
1E
  3
Model
350
22
  3
Layout2
350
26
  0
DICTIONARY
  5
2A
102
{ACAD_REACTORS
330
C
102
}
330
C
100
AcDbDictionary
281
     1
  3
Flat
350
2B
  3
FlatWithEdges
350
2C
  3
Gouraud
350
2D
  3
GouraudWithEdges
350
2E
  3
2dWireframe
350
2F
  3
3dWireframe
350
30
  3
3D Hidden
350
31
  3
Basic
350
32
  3
Realistic
350
33
  3
Conceptual
350
34
  3
Dim
350
35
  3
Brighten
350
36
  3
Thicken
350
37
  3
Linepattern
350
38
  3
Facepattern
350
39
  3
ColorChange
350
3A
  0
DICTIONARY
  5
3B
102
{ACAD_REACTORS
330
C
102
}
330
C
100
AcDbDictionary
281
     1
  3
A0
350
3C
  3
A1
350
3D
  3
A2
350
3E
  3
A3
350
3F
  3
A4
350
40
  3
A5
350
41
  3
A6
350
42
  3
A7
350
43
  3
A8
350
44
  3
A9
350
45
  3
B0
350
46
  3
B1
350
47
  3
B2
350
48
  3
B3
350
49
  3
B4
350
4A
  3
B5
350
4B
  3
B6
350
4C
  3
B7
350
4D
  3
B8
350
4E
  3
B9
350
4F
  3
C0
350
50
  3
C1
350
51
  3
C2
350
52
  3
C3
350
53
  3
C4
350
54
  3
C5
350
55
  3
C6
350
56
  3
C7
350
57
  3
C8
350
58
  3
C9
350
59
  3
D0
350
5A
  3
D1
350
5B
  3
D2
350
5C
  0
DICTIONARY
  5
124
102
{ACAD_REACTORS
330
C
102
}
330
C
100
AcDbDictionary
281
     1
  3
CANNOSCALE
350
125
  0
DICTIONARY
  5
126
102
{ACAD_REACTORS
330
C
102
}
330
C
100
AcDbDictionary
281
     1
  0
DICTIONARY
  5
127
102
{ACAD_REACTORS
330
C
102
}
330
C
100
AcDbDictionary
281
     1
  0
ACDBPLACEHOLDER
  5
F
102
{ACAD_REACTORS
330
E
102
}
330
E
  0
MLINESTYLE
  5
18
102
{ACAD_REACTORS
330
17
102
}
330
17
100
AcDbMlineStyle
  2
STANDARD
 70
     0
  3

 62
   256
 51
90.0
 52
90.0
 71
     2
 49
0.5
 62
   256
  6
BYLAYER
 49
-0.5
 62
   256
  6
BYLAYER
  0
LAYOUT
  5
1E
102
{ACAD_REACTORS
330
1A
102
}
330
1A
100
AcDbPlotSettings
  1

  2
none_device
  4

  6

 40
0.0
 41
0.0
 42
0.0
 43
0.0
 44
0.0
 45
0.0
 46
0.0
 47
0.0
 48
0.0
 49
0.0
140
0.0
141
0.0
142
1.0
143
1.0
 70
   688
 72
     0
 73
     0
 74
     5
  7

 75
    16
147
1.0
148
0.0
149
0.0
100
AcDbLayout
  1
Layout1
 70
     1
 71
     1
 10
0.0
 20
0.0
 11
12.0
 21
9.0
 12
0.0
 22
0.0
 32
0.0
 14
1.000000000000000E+20
 24
1.000000000000000E+20
 34
1.000000000000000E+20
 15
-1.000000000000000E+20
 25
-1.000000000000000E+20
 35
-1.000000000000000E+20
146
0.0
 13
0.0
 23
0.0
 33
0.0
 16
1.0
 26
0.0
 36
0.0
 17
0.0
 27
1.0
 37
0.0
 76
     0
330
1B
  0
LAYOUT
  5
22
102
{ACAD_REACTORS
330
1A
102
}
330
1A
100
AcDbPlotSettings
  1

  2
none_device
  4

  6

 40
0.0
 41
0.0
 42
0.0
 43
0.0
 44
0.0
 45
0.0
 46
0.0
 47
0.0
 48
0.0
 49
0.0
140
0.0
141
0.0
142
1.0
143
1.0
 70
  1712
 72
     0
 73
     0
 74
     0
  7

 75
     0
147
1.0
148
0.0
149
0.0
100
AcDbLayout
  1
Model
 70
     1
 71
     0
 10
0.0
 20
0.0
 11
11.0
 21
8.5
 12
0.0
 22
0.0
 32
0.0
 14
0.0
 24
0.0
 34
0.0
 15
11.0
 25
8.5
 35
0.0
146
0.0
 13
0.0
 23
0.0
 33
0.0
 16
1.0
 26
0.0
 36
0.0
 17
0.0
 27
1.0
 37
0.0
 76
     0
330
1F
  0
LAYOUT
  5
26
102
{ACAD_REACTORS
330
1A
102
}
330
1A
100
AcDbPlotSettings
  1

  2
none_device
  4

  6

 40
0.0
 41
0.0
 42
0.0
 43
0.0
 44
0.0
 45
0.0
 46
0.0
 47
0.0
 48
0.0
 49
0.0
140
0.0
141
0.0
142
1.0
143
1.0
 70
   688
 72
     0
 73
     0
 74
     5
  7

 75
    16
147
1.0
148
0.0
149
0.0
100
AcDbLayout
  1
Layout2
 70
     1
 71
     2
 10
0.0
 20
0.0
 11
0.0
 21
0.0
 12
0.0
 22
0.0
 32
0.0
 14
0.0
 24
0.0
 34
0.0
 15
0.0
 25
0.0
 35
0.0
146
0.0
 13
0.0
 23
0.0
 33
0.0
 16
1.0
 26
0.0
 36
0.0
 17
0.0
 27
1.0
 37
0.0
 76
     0
330
23
  0
ACAD_PROXY_OBJECT
  5
2B
102
{ACAD_REACTORS
330
2A
102
}
330
2A
100
AcDbProxyObject
 90
      499
 91
      501
 95
   393239
 70
     0
 93
      388
310
41119B185D240901404333333333333E3BF0000000000000F9010740A41107004050150841D405064090741402480A1B50
 94
        0
1001
ACAD
1000
AcDbSavedByObjectVersion
1070
     0
  0
ACAD_PROXY_OBJECT
  5
2C
102
{ACAD_REACTORS
330
2A
102
}
330
2A
100
AcDbProxyObject
 90
      499
 91
      501
 95
   393239
 70
     0
 93
      476
310
43519B185D15DA5D1A115919D95CD0140901404333333333333E3BF0000000000000F9010740901411070040501600405405064090741402480A1B50
 94
        0
1001
ACAD
1000
AcDbSavedByObjectVersion
1070
     0
  0
ACAD_PROXY_OBJECT
  5
2D
102
{ACAD_REACTORS
330
2A
102
}
330
2A
100
AcDbProxyObject
 90
      499
 91
      501
 95
   393239
 70
     0
 93
      412
310
41D1DBDD5C985D5910240902404333333333333E3BF0000000000000F9010740A411070040501641D405064090741402480A1B50
 94
        0
1001
ACAD
1000
AcDbSavedByObjectVersion
1070
     0
  0
ACAD_PROXY_OBJECT
  5
2E
102
{ACAD_REACTORS
330
2A
102
}
330
2A
100
AcDbProxyObject
 90
      499
 91
      501
 95
   393239
 70
     0
 93
      500
310
4411DBDD5C985D5915DA5D1A115919D95CD0340902404333333333333E3BF0000000000000F9010740901411070040501600405405064090741402480A1B50
 94
        0
1001
ACAD
1000
AcDbSavedByObjectVersion
1070
     0
  0
ACAD_PROXY_OBJECT
  5
2F
102
{ACAD_REACTORS
330
2A
102
}
330
2A
100
AcDbProxyObject
 90
      499
 91
      501
 95
   393239
 70
     0
 93
      436
310
42CC9915DA5C99599C985B595049028333333333333E3BF0000000000000FB0107901411070040501600405405064090741402480A0340
 94
        0
1001
ACAD
1000
AcDbSavedByObjectVersion
1070
     0
  0
ACAD_PROXY_OBJECT
  5
30
102
{ACAD_REACTORS
330
2A
102
}
330
2A
100
AcDbProxyObject
 90
      499
 91
      501
 95
   393239
 70
     0
 93
      436
310
42CCD915DA5C99599C985B595059028333333333333E3BF0000000000000FB0107901411070040501600405405064090741402480A0340
 94
        0
1001
ACAD
1000
AcDbSavedByObjectVersion
1070
     0
  0
ACAD_PROXY_OBJECT
  5
31
102
{ACAD_REACTORS
330
2A
102
}
330
2A
100
AcDbProxyObject
 90
      499
 91
      501
 95
   393239
 70
     0
 93
      500
310
424CD108121A5919195B90640502408333333333333E3BF0000000000000FB01079024090700405020000000000001110200405405064090740C02480A0340
 94
        0
1001
ACAD
1000
AcDbSavedByObjectVersion
1070
     0
  0
ACAD_PROXY_OBJECT
  5
32
102
{ACAD_REACTORS
330
2A
102
}
330
2A
100
AcDbProxyObject
 90
      499
 91
      501
 95
   393239
 70
     0
 93
      388
310
4150985CDA58D07406404333333333333E3BF0000000000000FB0107A41107004050150841D405064090741402480A0352
 94
        0
1001
ACAD
1000
AcDbSavedByObjectVersion
1070
     0
  0
ACAD_PROXY_OBJECT
  5
33
102
{ACAD_REACTORS
330
2A
102
}
330
2A
100
AcDbProxyObject
 90
      499
 91
      501
 95
   393239
 70
     0
 93
      420
310
425499585B1A5CDD1A58D08409028333333333333E3BF0000000000000FB01079019070040501508421405064090741402480A1B45
 94
        0
1001
ACAD
1000
AcDbSavedByObjectVersion
1070
     0
  0
ACAD_PROXY_OBJECT
  5
34
102
{ACAD_REACTORS
330
2A
102
}
330
2A
100
AcDbProxyObject
 90
      499
 91
      501
 95
   393239
 70
     0
 93
      500
310
4290DBDB98D95C1D1D585B10940D028333333333333E3BF0000000000000FB0107902409070040501000000000000111010841D405064090740C02480A0340
 94
        0
1001
ACAD
1000
AcDbSavedByObjectVersion
1070
     0
  0
ACAD_PROXY_OBJECT
  5
35
102
{ACAD_REACTORS
330
2A
102
}
330
2A
100
AcDbProxyObject
 90
      499
 91
      501
 95
   393239
 70
     0
 93
      412
310
40D11A5B50B409028333333333333E3BF0000000000000FB010790141107004050150841D405064090741402480A02677FFFFFD4
 94
        0
1001
ACAD
1000
AcDbSavedByObjectVersion
1070
     0
  0
ACAD_PROXY_OBJECT
  5
36
102
{ACAD_REACTORS
330
2A
102
}
330
2A
100
AcDbProxyObject
 90
      499
 91
      501
 95
   393239
 70
     0
 93
      428
310
42109C9A59DA1D195B90C409028333333333333E3BF0000000000000FB010790141107004050150841D405064090741402480A029956
 94
        0
1001
ACAD
1000
AcDbSavedByObjectVersion
1070
     0
  0
ACAD_PROXY_OBJECT
  5
37
102
{ACAD_REACTORS
330
2A
102
}
330
2A
100
AcDbProxyObject
 90
      499
 91
      501
 95
   393239
 70
     0
 93
      412
310
41D51A1A58DAD95B90D409028333333333333E3BF0000000000000FB010790141107004050150C41D405064090741402480A0352
 94
        0
1001
ACAD
1000
AcDbSavedByObjectVersion
1070
     0
  0
ACAD_PROXY_OBJECT
  5
38
102
{ACAD_REACTORS
330
2A
102
}
330
2A
100
AcDbProxyObject
 90
      499
 91
      501
 95
   393239
 70
     0
 93
      444
310
42D31A5B995C185D1D195C9B90E409028333333333333E3BF0000000000000FB010790141107004050750841D405064090741402483A0350
 94
        0
1001
ACAD
1000
AcDbSavedByObjectVersion
1070
     0
  0
ACAD_PROXY_OBJECT
  5
39
102
{ACAD_REACTORS
330
2A
102
}
330
2A
100
AcDbProxyObject
 90
      499
 91
      501
 95
   393239
 70
     0
 93
      444
310
42D19858D95C185D1D195C9B90F409028333333333333E3BF0000000000000FB010790141107004050150841D405064090741402480A0350
 94
        0
1001
ACAD
1000
AcDbSavedByObjectVersion
1070
     0
  0
ACAD_PROXY_OBJECT
  5
3A
102
{ACAD_REACTORS
330
2A
102
}
330
2A
100
AcDbProxyObject
 90
      499
 91
      501
 95
   393239
 70
     0
 93
      452
310
42D0DBDB1BDC90DA185B99D95104090240C333333333333E3BF0000000000000FB0108901411070040501508421405064090741402480A0354
 94
        0
1001
ACAD
1000
AcDbSavedByObjectVersion
1070
     0
  0
ACAD_PROXY_OBJECT
  5
3C
102
{ACAD_REACTORS
330
3B
102
}
330
3B
100
AcDbProxyObject
 90
      499
 91
      502
 95
   393239
 70
     0
 93
       41
310
903313A31581
 94
        0
  0
ACAD_PROXY_OBJECT
  5
3D
102
{ACAD_REACTORS
330
3B
102
}
330
3B
100
AcDbProxyObject
 90
      499
 91
      502
 95
   393239
 70
     0
 93
      105
310
903313A324000000000000004000
 94
        0
  0
ACAD_PROXY_OBJECT
  5
3E
102
{ACAD_REACTORS
330
3B
102
}
330
3B
100
AcDbProxyObject
 90
      499
 91
      502
 95
   393239
 70
     0
 93
      105
310
903313A344000000000000104000
 94
        0
  0
ACAD_PROXY_OBJECT
  5
3F
102
{ACAD_REACTORS
330
3B
102
}
330
3B
100
AcDbProxyObject
 90
      499
 91
      502
 95
   393239
 70
     0
 93
      105
310
903313A354000000000000144000
 94
        0
  0
ACAD_PROXY_OBJECT
  5
40
102
{ACAD_REACTORS
330
3B
102
}
330
3B
100
AcDbProxyObject
 90
      499
 91
      502
 95
   393239
 70
     0
 93
      105
310
903313A384000000000000204000
 94
        0
  0
ACAD_PROXY_OBJECT
  5
41
102
{ACAD_REACTORS
330
3B
102
}
330
3B
100
AcDbProxyObject
 90
      499
 91
      502
 95
   393239
 70
     0
 93
      113
310
904313A31304000000000000244000
 94
        0
  0
ACAD_PROXY_OBJECT
  5
42
102
{ACAD_REACTORS
330
3B
102
}
330
3B
100
AcDbProxyObject
 90
      499
 91
      502
 95
   393239
 70
     0
 93
      113
310
904313A31364000000000000304000
 94
        0
  0
ACAD_PROXY_OBJECT
  5
43
102
{ACAD_REACTORS
330
3B
102
}
330
3B
100
AcDbProxyObject
 90
      499
 91
      502
 95
   393239
 70
     0
 93
      113
310
904313A32304000000000000344000
 94
        0
  0
ACAD_PROXY_OBJECT
  5
44
102
{ACAD_REACTORS
330
3B
102
}
330
3B
100
AcDbProxyObject
 90
      499
 91
      502
 95
   393239
 70
     0
 93
      113
310
904313A333040000000000003E4000
 94
        0
  0
ACAD_PROXY_OBJECT
  5
45
102
{ACAD_REACTORS
330
3B
102
}
330
3B
100
AcDbProxyObject
 90
      499
 91
      502
 95
   393239
 70
     0
 93
      113
310
904313A34304000000000000444000
 94
        0
  0
ACAD_PROXY_OBJECT
  5
46
102
{ACAD_REACTORS
330
3B
102
}
330
3B
100
AcDbProxyObject
 90
      499
 91
      502
 95
   393239
 70
     0
 93
      113
310
904313A35304000000000000494000
 94
        0
  0
ACAD_PROXY_OBJECT
  5
47
102
{ACAD_REACTORS
330
3B
102
}
330
3B
100
AcDbProxyObject
 90
      499
 91
      502
 95
   393239
 70
     0
 93
      121
310
905313A3130304000000000000594000
 94
        0
  0
ACAD_PROXY_OBJECT
  5
48
102
{ACAD_REACTORS
330
3B
102
}
330
3B
100
AcDbProxyObject
 90
      499
 91
      502
 95
   393239
 70
     0
 93
      105
310
903323A310000000000000010159
 94
        0
  0
ACAD_PROXY_OBJECT
  5
49
102
{ACAD_REACTORS
330
3B
102
}
330
3B
100
AcDbProxyObject
 90
      499
 91
      502
 95
   393239
 70
     0
 93
      105
310
903343A310000000000000410100
 94
        0
  0
ACAD_PROXY_OBJECT
  5
4A
102
{ACAD_REACTORS
330
3B
102
}
330
3B
100
AcDbProxyObject
 90
      499
 91
      502
 95
   393239
 70
     0
 93
      105
310
903383A310000000000000810100
 94
        0
  0
ACAD_PROXY_OBJECT
  5
4B
102
{ACAD_REACTORS
330
3B
102
}
330
3B
100
AcDbProxyObject
 90
      499
 91
      502
 95
   393239
 70
     0
 93
      113
310
90431303A310000000000000910100
 94
        0
  0
ACAD_PROXY_OBJECT
  5
4C
102
{ACAD_REACTORS
330
3B
102
}
330
3B
100
AcDbProxyObject
 90
      499
 91
      502
 95
   393239
 70
     0
 93
      121
310
9053130303A310000000000001650100
 94
        0
  0
ACAD_PROXY_OBJECT
  5
4D
102
{ACAD_REACTORS
330
3B
102
}
330
3B
100
AcDbProxyObject
 90
      499
 91
      502
 95
   393239
 70
     0
 93
      257
310
90E312F31323822203D2031272D3022000000000000200FC000000000000284000
 94
        0
  0
ACAD_PROXY_OBJECT
  5
4E
102
{ACAD_REACTORS
330
3B
102
}
330
3B
100
AcDbProxyObject
 90
      499
 91
      502
 95
   393239
 70
     0
 93
      249
310
90D312F363422203D2031272D3022000000000000240FC000000000000284000
 94
        0
  0
ACAD_PROXY_OBJECT
  5
4F
102
{ACAD_REACTORS
330
3B
102
}
330
3B
100
AcDbProxyObject
 90
      499
 91
      502
 95
   393239
 70
     0
 93
      249
310
90D312F333222203D2031272D3022000000000000280FC000000000000284040
 94
        0
  0
ACAD_PROXY_OBJECT
  5
50
102
{ACAD_REACTORS
330
3B
102
}
330
3B
100
AcDbProxyObject
 90
      499
 91
      502
 95
   393239
 70
     0
 93
      249
310
90D312F313622203D2031272D30220000000000002C0FC000000000000284000
 94
        0
  0
ACAD_PROXY_OBJECT
  5
51
102
{ACAD_REACTORS
330
3B
102
}
330
3B
100
AcDbProxyObject
 90
      499
 91
      502
 95
   393239
 70
     0
 93
      249
310
90D332F333222203D2031272D30220000000000002E0FC000000000000284040
 94
        0
  0
ACAD_PROXY_OBJECT
  5
52
102
{ACAD_REACTORS
330
3B
102
}
330
3B
100
AcDbProxyObject
 90
      499
 91
      502
 95
   393239
 70
     0
 93
      241
310
90C312F3822203D2031272D3022000000000000300FC000000000000284040
 94
        0
  0
ACAD_PROXY_OBJECT
  5
53
102
{ACAD_REACTORS
330
3B
102
}
330
3B
100
AcDbProxyObject
 90
      499
 91
      502
 95
   393239
 70
     0
 93
      249
310
90D332F313622203D2031272D3022000000000000320FC000000000000284040
 94
        0
  0
ACAD_PROXY_OBJECT
  5
54
102
{ACAD_REACTORS
330
3B
102
}
330
3B
100
AcDbProxyObject
 90
      499
 91
      502
 95
   393239
 70
     0
 93
      241
310
90C312F3422203D2031272D3022000000000000340FC000000000000284040
 94
        0
  0
ACAD_PROXY_OBJECT
  5
55
102
{ACAD_REACTORS
330
3B
102
}
330
3B
100
AcDbProxyObject
 90
      499
 91
      502
 95
   393239
 70
     0
 93
      241
310
90C332F3822203D2031272D3022000000000000360FC000000000000284040
 94
        0
  0
ACAD_PROXY_OBJECT
  5
56
102
{ACAD_REACTORS
330
3B
102
}
330
3B
100
AcDbProxyObject
 90
      499
 91
      502
 95
   393239
 70
     0
 93
      241
310
90C312F3222203D2031272D3022000000000000380FC000000000000284040
 94
        0
  0
ACAD_PROXY_OBJECT
  5
57
102
{ACAD_REACTORS
330
3B
102
}
330
3B
100
AcDbProxyObject
 90
      499
 91
      502
 95
   393239
 70
     0
 93
      241
310
90C332F3422203D2031272D30220000000000003A0FC000000000000284040
 94
        0
  0
ACAD_PROXY_OBJECT
  5
58
102
{ACAD_REACTORS
330
3B
102
}
330
3B
100
AcDbProxyObject
 90
      499
 91
      502
 95
   393239
 70
     0
 93
      161
310
90A3122203D2031272D30224000000000000284020
 94
        0
  0
ACAD_PROXY_OBJECT
  5
59
102
{ACAD_REACTORS
330
3B
102
}
330
3B
100
AcDbProxyObject
 90
      499
 91
      502
 95
   393239
 70
     0
 93
      257
310
90E312D312F3222203D2031272D30220000000000003E0FC000000000000284000
 94
        0
  0
ACAD_PROXY_OBJECT
  5
5A
102
{ACAD_REACTORS
330
3B
102
}
330
3B
100
AcDbProxyObject
 90
      499
 91
      502
 95
   393239
 70
     0
 93
      225
310
90A3322203D2031272D302200000000000002100000000000000284000
 94
        0
  0
ACAD_PROXY_OBJECT
  5
5B
102
{ACAD_REACTORS
330
3B
102
}
330
3B
100
AcDbProxyObject
 90
      499
 91
      502
 95
   393239
 70
     0
 93
      225
310
90A3622203D2031272D302200000000000006100000000000000284000
 94
        0
  0
ACAD_PROXY_OBJECT
  5
5C
102
{ACAD_REACTORS
330
3B
102
}
330
3B
100
AcDbProxyObject
 90
      499
 91
      502
 95
   393239
 70
     0
 93
      249
310
90D31272D3022203D2031272D30220000000000000A100000000000000284040
 94
        0
  0
DICTIONARYVAR
  5
125
102
{ACAD_REACTORS
330
124
102
}
330
124
100
DictionaryVariables
280
     0
  1
1:1
  0
ENDSEC
  0
EOF
